  0
SECTION
  2
HEADER
  9
$ACADVER
  1
AC1015
  9
$ACADMAINTVER
 70
    18
  9
$DWGCODEPAGE
  3
ANSI_1252
  9
$INSBASE
 10
0.0
 20
0.0
 30
0.0
  9
$EXTMIN
 10
-197.5286857755023
 20
-425.5054319327527
 30
-0.0015258207003583
  9
$EXTMAX
 10
197.5350959337493
 20
167.5111547155668
 30
0.0000000349246037
  9
$LIMMIN
 10
0.0
 20
0.0
  9
$LIMMAX
 10
420.0
 20
297.0
  9
$ORTHOMODE
 70
     0
  9
$REGENMODE
 70
     1
  9
$FILLMODE
 70
     1
  9
$QTEXTMODE
 70
     0
  9
$MIRRTEXT
 70
     0
  9
$LTSCALE
 40
1.0
  9
$ATTMODE
 70
     1
  9
$TEXTSIZE
 40
2.5
  9
$TRACEWID
 40
1.0
  9
$TEXTSTYLE
  7
Standard
  9
$CLAYER
  8
0
  9
$CELTYPE
  6
ByLayer
  9
$CECOLOR
 62
   256
  9
$CELTSCALE
 40
1.0
  9
$DISPSILH
 70
     0
  9
$DIMSCALE
 40
1.0
  9
$DIMASZ
 40
2.5
  9
$DIMEXO
 40
0.625
  9
$DIMDLI
 40
3.75
  9
$DIMRND
 40
0.0
  9
$DIMDLE
 40
0.0
  9
$DIMEXE
 40
1.25
  9
$DIMTP
 40
0.0
  9
$DIMTM
 40
0.0
  9
$DIMTXT
 40
2.5
  9
$DIMCEN
 40
2.5
  9
$DIMTSZ
 40
0.0
  9
$DIMTOL
 70
     0
  9
$DIMLIM
 70
     0
  9
$DIMTIH
 70
     0
  9
$DIMTOH
 70
     0
  9
$DIMSE1
 70
     0
  9
$DIMSE2
 70
     0
  9
$DIMTAD
 70
     1
  9
$DIMZIN
 70
     8
  9
$DIMBLK
  1

  9
$DIMASO
 70
     1
  9
$DIMSHO
 70
     1
  9
$DIMPOST
  1

  9
$DIMAPOST
  1

  9
$DIMALT
 70
     0
  9
$DIMALTD
 70
     3
  9
$DIMALTF
 40
0.03937007874016
  9
$DIMLFAC
 40
1.0
  9
$DIMTOFL
 70
     1
  9
$DIMTVP
 40
0.0
  9
$DIMTIX
 70
     0
  9
$DIMSOXD
 70
     0
  9
$DIMSAH
 70
     0
  9
$DIMBLK1
  1

  9
$DIMBLK2
  1

  9
$DIMSTYLE
  2
ISO-25
  9
$DIMCLRD
 70
     0
  9
$DIMCLRE
 70
     0
  9
$DIMCLRT
 70
     0
  9
$DIMTFAC
 40
1.0
  9
$DIMGAP
 40
0.625
  9
$DIMJUST
 70
     0
  9
$DIMSD1
 70
     0
  9
$DIMSD2
 70
     0
  9
$DIMTOLJ
 70
     0
  9
$DIMTZIN
 70
     8
  9
$DIMALTZ
 70
     0
  9
$DIMALTTZ
 70
     0
  9
$DIMUPT
 70
     0
  9
$DIMDEC
 70
     2
  9
$DIMTDEC
 70
     2
  9
$DIMALTU
 70
     2
  9
$DIMALTTD
 70
     3
  9
$DIMTXSTY
  7
Standard
  9
$DIMAUNIT
 70
     0
  9
$DIMADEC
 70
     0
  9
$DIMALTRND
 40
0.0
  9
$DIMAZIN
 70
     0
  9
$DIMDSEP
 70
    44
  9
$DIMATFIT
 70
     3
  9
$DIMFRAC
 70
     0
  9
$DIMLDRBLK
  1

  9
$DIMLUNIT
 70
     2
  9
$DIMLWD
 70
    -2
  9
$DIMLWE
 70
    -2
  9
$DIMTMOVE
 70
     0
  9
$LUNITS
 70
     2
  9
$LUPREC
 70
     4
  9
$SKETCHINC
 40
1.0
  9
$FILLETRAD
 40
0.0
  9
$AUNITS
 70
     0
  9
$AUPREC
 70
     0
  9
$MENU
  1
.
  9
$ELEVATION
 40
0.0
  9
$PELEVATION
 40
0.0
  9
$THICKNESS
 40
0.0
  9
$LIMCHECK
 70
     0
  9
$CHAMFERA
 40
0.0
  9
$CHAMFERB
 40
0.0
  9
$CHAMFERC
 40
0.0
  9
$CHAMFERD
 40
0.0
  9
$SKPOLY
 70
     0
  9
$TDCREATE
 40
2460286.622500000
  9
$TDUCREATE
 40
2460286.330833334
  9
$TDUPDATE
 40
2460286.631608796
  9
$TDUUPDATE
 40
2460286.339942130
  9
$TDINDWG
 40
0.0033680556
  9
$TDUSRTIMER
 40
0.0033680556
  9
$USRTIMER
 70
     1
  9
$ANGBASE
 50
0.0
  9
$ANGDIR
 70
     0
  9
$PDMODE
 70
     0
  9
$PDSIZE
 40
0.0
  9
$PLINEWID
 40
0.0
  9
$SPLFRAME
 70
     0
  9
$SPLINETYPE
 70
     6
  9
$SPLINESEGS
 70
     8
  9
$HANDSEED
  5
D72
  9
$SURFTAB1
 70
     6
  9
$SURFTAB2
 70
     6
  9
$SURFTYPE
 70
     6
  9
$SURFU
 70
     6
  9
$SURFV
 70
     6
  9
$UCSBASE
  2

  9
$UCSNAME
  2

  9
$UCSORG
 10
0.0
 20
0.0
 30
0.0
  9
$UCSXDIR
 10
1.0
 20
0.0
 30
0.0
  9
$UCSYDIR
 10
0.0
 20
1.0
 30
0.0
  9
$UCSORTHOREF
  2

  9
$UCSORTHOVIEW
 70
     0
  9
$UCSORGTOP
 10
0.0
 20
0.0
 30
0.0
  9
$UCSORGBOTTOM
 10
0.0
 20
0.0
 30
0.0
  9
$UCSORGLEFT
 10
0.0
 20
0.0
 30
0.0
  9
$UCSORGRIGHT
 10
0.0
 20
0.0
 30
0.0
  9
$UCSORGFRONT
 10
0.0
 20
0.0
 30
0.0
  9
$UCSORGBACK
 10
0.0
 20
0.0
 30
0.0
  9
$PUCSBASE
  2

  9
$PUCSNAME
  2

  9
$PUCSORG
 10
0.0
 20
0.0
 30
0.0
  9
$PUCSXDIR
 10
1.0
 20
0.0
 30
0.0
  9
$PUCSYDIR
 10
0.0
 20
1.0
 30
0.0
  9
$PUCSORTHOREF
  2

  9
$PUCSORTHOVIEW
 70
     0
  9
$PUCSORGTOP
 10
0.0
 20
0.0
 30
0.0
  9
$PUCSORGBOTTOM
 10
0.0
 20
0.0
 30
0.0
  9
$PUCSORGLEFT
 10
0.0
 20
0.0
 30
0.0
  9
$PUCSORGRIGHT
 10
0.0
 20
0.0
 30
0.0
  9
$PUCSORGFRONT
 10
0.0
 20
0.0
 30
0.0
  9
$PUCSORGBACK
 10
0.0
 20
0.0
 30
0.0
  9
$USERI1
 70
     0
  9
$USERI2
 70
     0
  9
$USERI3
 70
     0
  9
$USERI4
 70
     0
  9
$USERI5
 70
     0
  9
$USERR1
 40
0.0
  9
$USERR2
 40
0.0
  9
$USERR3
 40
0.0
  9
$USERR4
 40
0.0
  9
$USERR5
 40
0.0
  9
$WORLDVIEW
 70
     1
  9
$SHADEDGE
 70
     3
  9
$SHADEDIF
 70
    70
  9
$TILEMODE
 70
     1
  9
$MAXACTVP
 70
    48
  9
$PINSBASE
 10
0.0
 20
0.0
 30
0.0
  9
$PLIMCHECK
 70
     0
  9
$PEXTMIN
 10
0.0
 20
0.0
 30
0.0
  9
$PEXTMAX
 10
0.0
 20
0.0
 30
0.0
  9
$PLIMMIN
 10
0.0
 20
0.0
  9
$PLIMMAX
 10
12.0
 20
9.0
  9
$UNITMODE
 70
     0
  9
$VISRETAIN
 70
     1
  9
$PLINEGEN
 70
     0
  9
$PSLTSCALE
 70
     1
  9
$TREEDEPTH
 70
  3020
  9
$CMLSTYLE
  2
Standard
  9
$CMLJUST
 70
     0
  9
$CMLSCALE
 40
20.0
  9
$PROXYGRAPHICS
 70
     1
  9
$MEASUREMENT
 70
     1
  9
$CELWEIGHT
370
    -1
  9
$ENDCAPS
280
     0
  9
$JOINSTYLE
280
     0
  9
$LWDISPLAY
290
     0
  9
$INSUNITS
 70
     4
  9
$HYPERLINKBASE
  1

  9
$STYLESHEET
  1

  9
$XEDIT
290
     1
  9
$CEPSNTYPE
380
     0
  9
$PSTYLEMODE
290
     1
  9
$FINGERPRINTGUID
  2
{F076C30E-3F10-754B-AD36-B589FE558AAC}
  9
$VERSIONGUID
  2
{B57F81D1-0AA9-314A-A36C-2CC0F1DF265A}
  9
$EXTNAMES
290
     1
  9
$PSVPSCALE
 40
0.0
  9
$OLESTARTUP
290
     0
  0
ENDSEC
  0
SECTION
  2
CLASSES
  0
CLASS
  1
ACDBDICTIONARYWDFLT
  2
AcDbDictionaryWithDefault
  3
ObjectDBX Classes
 90
        0
280
     0
281
     0
  0
CLASS
  1
ACDBPLACEHOLDER
  2
AcDbPlaceHolder
  3
ObjectDBX Classes
 90
        0
280
     0
281
     0
  0
CLASS
  1
LAYOUT
  2
AcDbLayout
  3
ObjectDBX Classes
 90
        0
280
     0
281
     0
  0
CLASS
  1
DICTIONARYVAR
  2
AcDbDictionaryVar
  3
ObjectDBX Classes
 90
        0
280
     0
281
     0
  0
CLASS
  1
TABLESTYLE
  2
AcDbTableStyle
  3
ObjectDBX Classes
 90
     4095
280
     0
281
     0
  0
CLASS
  1
MATERIAL
  2
AcDbMaterial
  3
ObjectDBX Classes
 90
     1153
280
     0
281
     0
  0
CLASS
  1
VISUALSTYLE
  2
AcDbVisualStyle
  3
ObjectDBX Classes
 90
     4095
280
     0
281
     0
  0
CLASS
  1
SCALE
  2
AcDbScale
  3
ObjectDBX Classes
 90
     1153
280
     0
281
     0
  0
CLASS
  1
MLEADERSTYLE
  2
AcDbMLeaderStyle
  3
ACDB_MLEADERSTYLE_CLASS
 90
     4095
280
     0
281
     0
  0
CLASS
  1
CELLSTYLEMAP
  2
AcDbCellStyleMap
  3
ObjectDBX Classes
 90
     1152
280
     0
281
     0
  0
CLASS
  1
EXACXREFPANELOBJECT
  2
ExAcXREFPanelObject
  3
EXAC_ESW
 90
    33793
280
     0
281
     0
  0
CLASS
  1
NPOCOLLECTION
  2
AcDbImpNonPersistentObjectsCollection
  3
ObjectDBX Classes
 90
    33921
280
     0
281
     0
  0
CLASS
  1
LAYER_INDEX
  2
AcDbLayerIndex
  3
ObjectDBX Classes
 90
    32768
280
     0
281
     0
  0
CLASS
  1
SPATIAL_INDEX
  2
AcDbSpatialIndex
  3
ObjectDBX Classes
 90
    32768
280
     0
281
     0
  0
CLASS
  1
IDBUFFER
  2
AcDbIdBuffer
  3
ObjectDBX Classes
 90
    32768
280
     0
281
     0
  0
CLASS
  1
ACDBSECTIONVIEWSTYLE
  2
AcDbSectionViewStyle
  3
ObjectDBX Classes
 90
     1025
280
     0
281
     0
  0
CLASS
  1
ACDBDETAILVIEWSTYLE
  2
AcDbDetailViewStyle
  3
ObjectDBX Classes
 90
     1025
280
     0
281
     0
  0
CLASS
  1
XRECORD
  2
AcDbXrecord
  3
ObjectDBX Classes
 90
        0
280
     0
281
     0
  0
ENDSEC
  0
SECTION
  2
TABLES
  0
TABLE
  2
VPORT
  5
8
102
{ACAD_XDICTIONARY
360
C80
102
}
330
0
100
AcDbSymbolTable
 70
     1
  0
VPORT
  5
EA
330
8
100
AcDbSymbolTableRecord
100
AcDbViewportTableRecord
  2
*Active
 70
     0
 10
0.0
 20
0.0
 11
1.0
 21
1.0
 12
0.003205079123461
 22
-128.9971386085929
 13
0.0
 23
0.0
 14
10.0
 24
10.0
 15
10.0
 25
10.0
 16
0.0
 26
0.0
 36
1.0
 17
0.0
 27
0.0
 37
0.0
 40
630.6193987709812
 41
0.9846153846153846
 42
50.0
 43
0.0
 44
0.0
 50
0.0
 51
0.0
 71
     0
 72
  1000
 73
     1
 74
     3
 75
     0
 76
     1
 77
     0
 78
     0
281
     0
 65
     1
110
0.0
120
0.0
130
0.0
111
1.0
121
0.0
131
0.0
112
0.0
122
1.0
132
0.0
 79
     0
146
0.0
1001
ACAD_NAV_VCDISPLAY
1070
     3
  0
ENDTAB
  0
TABLE
  2
LTYPE
  5
5
330
0
100
AcDbSymbolTable
 70
     1
  0
LTYPE
  5
14
330
5
100
AcDbSymbolTableRecord
100
AcDbLinetypeTableRecord
  2
ByBlock
 70
     0
  3

 72
    65
 73
     0
 40
0.0
  0
LTYPE
  5
15
330
5
100
AcDbSymbolTableRecord
100
AcDbLinetypeTableRecord
  2
ByLayer
 70
     0
  3

 72
    65
 73
     0
 40
0.0
  0
LTYPE
  5
16
330
5
100
AcDbSymbolTableRecord
100
AcDbLinetypeTableRecord
  2
Continuous
 70
     0
  3
Solid line
 72
    65
 73
     0
 40
0.0
  0
ENDTAB
  0
TABLE
  2
LAYER
  5
2
102
{ACAD_XDICTIONARY
360
1FF
102
}
330
0
100
AcDbSymbolTable
 70
     1
  0
LAYER
  5
10
102
{ACAD_XDICTIONARY
360
13C
102
}
330
2
100
AcDbSymbolTableRecord
100
AcDbLayerTableRecord
  2
0
 70
     0
 62
     7
  6
Continuous
370
    -3
390
F
  0
ENDTAB
  0
TABLE
  2
STYLE
  5
3
330
0
100
AcDbSymbolTable
 70
     1
  0
STYLE
  5
11
330
3
100
AcDbSymbolTableRecord
100
AcDbTextStyleTableRecord
  2
Standard
 70
     0
 40
0.0
 41
1.0
 50
0.0
 71
     0
 42
2.5
  3
arial.ttf
  4

1001
ACAD
1000
Arial
1071
       34
  0
ENDTAB
  0
TABLE
  2
VIEW
  5
6
330
0
100
AcDbSymbolTable
 70
     0
  0
ENDTAB
  0
TABLE
  2
UCS
  5
7
330
0
100
AcDbSymbolTable
 70
     0
  0
ENDTAB
  0
TABLE
  2
APPID
  5
9
330
0
100
AcDbSymbolTable
 70
     8
  0
APPID
  5
12
330
9
100
AcDbSymbolTableRecord
100
AcDbRegAppTableRecord
  2
ACAD
 70
     0
  0
APPID
  5
9E
330
9
100
AcDbSymbolTableRecord
100
AcDbRegAppTableRecord
  2
ACAD_PSEXT
 70
     0
  0
APPID
  5
133
330
9
100
AcDbSymbolTableRecord
100
AcDbRegAppTableRecord
  2
AcadAnnoPO
 70
     0
  0
APPID
  5
134
330
9
100
AcDbSymbolTableRecord
100
AcDbRegAppTableRecord
  2
AcadAnnotative
 70
     0
  0
APPID
  5
135
330
9
100
AcDbSymbolTableRecord
100
AcDbRegAppTableRecord
  2
ACAD_DSTYLE_DIMJAG
 70
     0
  0
APPID
  5
136
330
9
100
AcDbSymbolTableRecord
100
AcDbRegAppTableRecord
  2
ACAD_DSTYLE_DIMTALN
 70
     0
  0
APPID
  5
165
330
9
100
AcDbSymbolTableRecord
100
AcDbRegAppTableRecord
  2
ACAD_MLEADERVER
 70
     0
  0
APPID
  5
217
330
9
100
AcDbSymbolTableRecord
100
AcDbRegAppTableRecord
  2
ACAD_NAV_VCDISPLAY
 70
     0
  0
ENDTAB
  0
TABLE
  2
DIMSTYLE
  5
A
330
0
100
AcDbSymbolTable
 70
     1
100
AcDbDimStyleTable
 71
     0
  0
DIMSTYLE
105
27
330
A
100
AcDbSymbolTableRecord
100
AcDbDimStyleTableRecord
  2
ISO-25
 70
     0
 41
2.5
 42
0.625
 43
3.75
 44
1.25
 73
     0
 74
     0
 77
     1
 78
     8
140
2.5
141
2.5
143
0.03937007874016
147
0.625
171
     3
172
     1
271
     2
272
     2
274
     3
278
    44
283
     0
284
     8
340
11
  0
ENDTAB
  0
TABLE
  2
BLOCK_RECORD
  5
1
330
0
100
AcDbSymbolTable
 70
     7
  0
BLOCK_RECORD
  5
1F
102
{ACAD_XDICTIONARY
360
1CE
102
}
330
1
100
AcDbSymbolTableRecord
100
AcDbBlockTableRecord
  2
*Model_Space
340
22
  0
BLOCK_RECORD
  5
D2
102
{ACAD_XDICTIONARY
360
C33
102
}
330
1
100
AcDbSymbolTableRecord
100
AcDbBlockTableRecord
  2
*Paper_Space
340
D3
  0
BLOCK_RECORD
  5
D6
102
{ACAD_XDICTIONARY
360
C35
102
}
330
1
100
AcDbSymbolTableRecord
100
AcDbBlockTableRecord
  2
*Paper_Space0
340
D7
  0
BLOCK_RECORD
  5
9DD
330
1
100
AcDbSymbolTableRecord
100
AcDbBlockTableRecord
  2
CBH180-Front
340
0
102
{BLKREFS
331
C29
102
}
  0
BLOCK_RECORD
  5
A40
330
1
100
AcDbSymbolTableRecord
100
AcDbBlockTableRecord
  2
CBH180-Left
340
0
102
{BLKREFS
331
C2A
102
}
  0
BLOCK_RECORD
  5
A96
330
1
100
AcDbSymbolTableRecord
100
AcDbBlockTableRecord
  2
CBH180-Right
340
0
102
{BLKREFS
331
C2B
102
}
  0
BLOCK_RECORD
  5
AE5
330
1
100
AcDbSymbolTableRecord
100
AcDbBlockTableRecord
  2
CBH180-Top
340
0
102
{BLKREFS
331
C2C
102
}
  0
BLOCK_RECORD
  5
B16
330
1
100
AcDbSymbolTableRecord
100
AcDbBlockTableRecord
  2
CBH180-Bottom
340
0
102
{BLKREFS
331
C2D
102
}
  0
BLOCK_RECORD
  5
B3A
330
1
100
AcDbSymbolTableRecord
100
AcDbBlockTableRecord
  2
CBH180-ISO
340
0
102
{BLKREFS
331
C2E
102
}
  0
ENDTAB
  0
ENDSEC
  0
SECTION
  2
BLOCKS
  0
BLOCK
  5
20
330
1F
100
AcDbEntity
  8
0
100
AcDbBlockBegin
  2
*Model_Space
 70
     0
 10
0.0
 20
0.0
 30
0.0
  3
*Model_Space
  1

  0
ENDBLK
  5
21
330
1F
100
AcDbEntity
  8
0
100
AcDbBlockEnd
  0
BLOCK
  5
D4
330
D2
100
AcDbEntity
 67
     1
  8
0
100
AcDbBlockBegin
  2
*Paper_Space
 70
     0
 10
0.0
 20
0.0
 30
0.0
  3
*Paper_Space
  1

  0
ENDBLK
  5
D5
330
D2
100
AcDbEntity
 67
     1
  8
0
100
AcDbBlockEnd
  0
BLOCK
  5
D8
330
D6
100
AcDbEntity
 67
     1
  8
0
100
AcDbBlockBegin
  2
*Paper_Space0
 70
     0
 10
0.0
 20
0.0
 30
0.0
  3
*Paper_Space0
  1

  0
ENDBLK
  5
D9
330
D6
100
AcDbEntity
 67
     1
  8
0
100
AcDbBlockEnd
  0
BLOCK
  5
9DE
330
9DD
100
AcDbEntity
  8
0
100
AcDbBlockBegin
  2
CBH180-Front
 70
     0
 10
0.0
 20
0.0
 30
0.0
  3
CBH180-Front
  1

  0
LINE
  5
9E0
330
9DD
100
AcDbEntity
  8
0
100
AcDbLine
 10
3.749999999999982
 20
-16.00000000000005
 30
0.0
 11
1.249999999999984
 21
-16.00000000000005
 31
0.0
  0
LINE
  5
9E1
330
9DD
100
AcDbEntity
  8
0
100
AcDbLine
 10
1.249999999999984
 20
-8.000000000000113
 30
0.0
 11
3.749999999999983
 21
-8.000000000000113
 31
0.0
  0
LINE
  5
9E2
330
9DD
100
AcDbEntity
  8
0
100
AcDbLine
 10
3.749999999999982
 20
-8.000000000000113
 30
0.0
 11
8.000000000000035
 21
-8.000000000000131
 31
0.0
  0
ARC
  5
9E3
330
9DD
100
AcDbEntity
  8
0
100
AcDbCircle
 10
1.249999999999985
 20
-13.50000000000009
 30
0.0
 40
2.499999999999991
100
AcDbArc
 50
270.0
 51
0.0
  0
ARC
  5
9E4
330
9DD
100
AcDbEntity
  8
0
100
AcDbCircle
 10
8.000000000000035
 20
-12.00000000000009
 30
0.0
 40
4.0
100
AcDbArc
 50
270.0
 51
90.0
  0
LINE
  5
9E5
330
9DD
100
AcDbEntity
  8
0
100
AcDbLine
 10
8.000000000000039
 20
-16.00000000000005
 30
0.0
 11
3.749999999999982
 21
-16.00000000000005
 31
0.0
  0
LINE
  5
9E6
330
9DD
100
AcDbEntity
  8
0
100
AcDbLine
 10
-3.750000000000015
 20
-157.25
 30
0.0
 11
-3.750000000000015
 21
-172.75
 31
0.0
  0
LINE
  5
9E7
330
9DD
100
AcDbEntity
  8
0
100
AcDbLine
 10
-3.750000000000015
 20
-127.25
 30
0.0
 11
-3.750000000000015
 21
-142.75
 31
0.0
  0
LINE
  5
9E8
330
9DD
100
AcDbEntity
  8
0
100
AcDbLine
 10
-3.750000000000015
 20
-97.25000000000001
 30
0.0
 11
-3.750000000000015
 21
-112.75
 31
0.0
  0
LINE
  5
9E9
330
9DD
100
AcDbEntity
  8
0
100
AcDbLine
 10
-3.750000000000015
 20
-67.25000000000001
 30
0.0
 11
-3.750000000000015
 21
-82.75
 31
0.0
  0
LINE
  5
9EA
330
9DD
100
AcDbEntity
  8
0
100
AcDbLine
 10
-3.750000000000015
 20
-37.25000000000001
 30
0.0
 11
-3.750000000000015
 21
-52.75
 31
0.0
  0
LINE
  5
9EB
330
9DD
100
AcDbEntity
  8
0
100
AcDbLine
 10
3.749999999999984
 20
-157.5
 30
0.0
 11
3.749999999999984
 21
-22.49999999999998
 31
0.0
  0
LINE
  5
9EC
330
9DD
100
AcDbEntity
  8
0
100
AcDbLine
 10
3.749999999999984
 20
-157.5
 30
0.0
 11
3.749999999999984
 21
-159.0
 31
0.0
  0
LINE
  5
9ED
330
9DD
100
AcDbEntity
  8
0
100
AcDbLine
 10
3.749999999999984
 20
-21.00000000000001
 30
0.0
 11
3.749999999999984
 21
-22.5
 31
0.0
  0
ARC
  5
9EE
330
9DD
100
AcDbEntity
  8
0
100
AcDbCircle
 10
1.249999999999985
 20
-10.50000000000008
 30
0.0
 40
2.5
100
AcDbArc
 50
0.0
 51
90.0
  0
LINE
  5
9EF
330
9DD
100
AcDbEntity
  8
0
100
AcDbLine
 10
3.749999999999984
 20
-10.50000000000009
 30
0.0
 11
3.749999999999984
 21
-13.50000000000009
 31
0.0
  0
ARC
  5
9F0
330
9DD
100
AcDbEntity
  8
0
100
AcDbCircle
 10
-3.750000000000015
 20
-175.25
 30
0.0
 40
2.5
100
AcDbArc
 50
0.0
 51
90.00000000000003
  0
ARC
  5
9F1
330
9DD
100
AcDbEntity
  8
0
100
AcDbCircle
 10
-3.750000000000015
 20
-154.75
 30
0.0
 40
2.5
100
AcDbArc
 50
270.0
 51
0.0
  0
ARC
  5
9F2
330
9DD
100
AcDbEntity
  8
0
100
AcDbCircle
 10
-3.750000000000015
 20
-145.25
 30
0.0
 40
2.5
100
AcDbArc
 50
0.0
 51
90.00000000000003
  0
ARC
  5
9F3
330
9DD
100
AcDbEntity
  8
0
100
AcDbCircle
 10
-3.750000000000015
 20
-124.75
 30
0.0
 40
2.5
100
AcDbArc
 50
270.0
 51
0.0
  0
ARC
  5
9F4
330
9DD
100
AcDbEntity
  8
0
100
AcDbCircle
 10
-3.750000000000015
 20
-115.25
 30
0.0
 40
2.5
100
AcDbArc
 50
0.0
 51
90.00000000000003
  0
ARC
  5
9F5
330
9DD
100
AcDbEntity
  8
0
100
AcDbCircle
 10
-3.750000000000015
 20
-94.75000000000001
 30
0.0
 40
2.5
100
AcDbArc
 50
270.0
 51
0.0
  0
ARC
  5
9F6
330
9DD
100
AcDbEntity
  8
0
100
AcDbCircle
 10
-3.750000000000015
 20
-85.25
 30
0.0
 40
2.5
100
AcDbArc
 50
0.0
 51
90.00000000000003
  0
ARC
  5
9F7
330
9DD
100
AcDbEntity
  8
0
100
AcDbCircle
 10
-3.750000000000015
 20
-64.75000000000001
 30
0.0
 40
2.5
100
AcDbArc
 50
270.0
 51
0.0
  0
ARC
  5
9F8
330
9DD
100
AcDbEntity
  8
0
100
AcDbCircle
 10
-3.750000000000015
 20
-55.25
 30
0.0
 40
2.5
100
AcDbArc
 50
0.0
 51
90.00000000000003
  0
ARC
  5
9F9
330
9DD
100
AcDbEntity
  8
0
100
AcDbCircle
 10
-3.750000000000015
 20
-34.75000000000001
 30
0.0
 40
2.5
100
AcDbArc
 50
270.0
 51
0.0
  0
ARC
  5
9FA
330
9DD
100
AcDbEntity
  8
0
100
AcDbCircle
 10
1.249999999999985
 20
-159.0
 30
0.0
 40
2.5
100
AcDbArc
 50
270.0
 51
0.0
  0
ARC
  5
9FB
330
9DD
100
AcDbEntity
  8
0
100
AcDbCircle
 10
1.249999999999985
 20
-21.00000000000001
 30
0.0
 40
2.5
100
AcDbArc
 50
0.0
 51
90.00000000000003
  0
LINE
  5
9FC
330
9DD
100
AcDbEntity
  8
0
100
AcDbLine
 10
30.0
 20
-88.50000000000006
 30
0.0
 11
26.0
 21
-92.50000000000007
 31
0.0
  0
LINE
  5
9FD
330
9DD
100
AcDbEntity
  8
0
100
AcDbLine
 10
26.00000000000007
 20
0.0
 30
0.0
 11
30.00000000000005
 21
-4.000000000000092
 31
0.0
  0
LINE
  5
9FE
330
9DD
100
AcDbEntity
  8
0
100
AcDbLine
 10
-30.00000000000003
 20
-101.5000000000001
 30
0.0
 11
-26.00000000000002
 21
-97.50000000000007
 31
0.0
  0
LINE
  5
9FF
330
9DD
100
AcDbEntity
  8
0
100
AcDbLine
 10
-26.0
 20
-180.0
 30
0.0
 11
-30.0
 21
-176.0000000000001
 31
0.0
  0
LINE
  5
A00
330
9DD
100
AcDbEntity
  8
0
100
AcDbLine
 10
1.249999999999985
 20
-180.0
 30
0.0
 11
1.249999999999985
 21
-176.0
 31
0.0
  0
LINE
  5
A01
330
9DD
100
AcDbEntity
  8
0
100
AcDbLine
 10
1.249999999999985
 20
-176.0
 30
0.0
 11
-1.250000000000015
 21
-176.0
 31
0.0
  0
LINE
  5
A02
330
9DD
100
AcDbEntity
  8
0
100
AcDbLine
 10
-1.250000000000014
 20
-176.0
 30
0.0
 11
-1.250000000000014
 21
-180.0
 31
0.0
  0
LINE
  5
A03
330
9DD
100
AcDbEntity
  8
0
100
AcDbLine
 10
-1.250000000000014
 20
-180.0
 30
0.0
 11
1.249999999999984
 21
-180.0
 31
0.0
  0
LINE
  5
A04
330
9DD
100
AcDbEntity
  8
0
100
AcDbLine
 10
-1.250000000000014
 20
0.0
 30
0.0
 11
-1.250000000000014
 21
-3.999999999999985
 31
0.0
  0
LINE
  5
A05
330
9DD
100
AcDbEntity
  8
0
100
AcDbLine
 10
-1.250000000000014
 20
-3.999999999999985
 30
0.0
 11
1.249999999999985
 21
-3.999999999999985
 31
0.0
  0
LINE
  5
A06
330
9DD
100
AcDbEntity
  8
0
100
AcDbLine
 10
1.249999999999985
 20
-3.999999999999985
 30
0.0
 11
1.249999999999985
 21
0.0
 31
0.0
  0
LINE
  5
A07
330
9DD
100
AcDbEntity
  8
0
100
AcDbLine
 10
1.249999999999985
 20
0.0
 30
0.0
 11
-1.250000000000015
 21
0.0
 31
0.0
  0
ARC
  5
A08
330
9DD
100
AcDbEntity
  8
0
100
AcDbCircle
 10
0.0000000000000386
 20
-47.00000000000007
 30
0.0
 40
5.5
100
AcDbArc
 50
132.9858860801911
 51
180.0
  0
ARC
  5
A09
330
9DD
100
AcDbEntity
  8
0
100
AcDbCircle
 10
0.0000000000000386
 20
-47.00000000000007
 30
0.0
 40
5.5
100
AcDbArc
 50
0.0
 51
47.01411391981054
  0
LINE
  5
A0A
330
9DD
100
AcDbEntity
  8
0
100
AcDbLine
 10
5.500000000000047
 20
-47.00000000000009
 30
0.0
 11
5.500000000000047
 21
-47.81949555165827
 31
0.0
  0
ARC
  5
A0B
330
9DD
100
AcDbEntity
  8
0
100
AcDbCircle
 10
0.0000000000000165
 20
-95.00000000000007
 30
0.0
 40
47.5
100
AcDbArc
 50
71.25065915298115
 51
83.35083723492767
  0
ARC
  5
A0C
330
9DD
100
AcDbEntity
  8
0
100
AcDbCircle
 10
13.50000000000003
 20
-55.22877924931151
 30
0.0
 40
5.5
100
AcDbArc
 50
251.2506591529812
 51
71.25065915298119
  0
ARC
  5
A0D
330
9DD
100
AcDbEntity
  8
0
100
AcDbCircle
 10
0.0000000000000165
 20
-95.00000000000007
 30
0.0
 40
36.5
100
AcDbArc
 50
71.25065915298113
 51
84.10304193906068
  0
ARC
  5
A0E
330
9DD
100
AcDbEntity
  8
0
100
AcDbCircle
 10
0.0000000000000381
 20
-53.00000000000008
 30
0.0
 40
5.5
100
AcDbArc
 50
180.0
 51
256.8634412130544
  0
LINE
  5
A0F
330
9DD
100
AcDbEntity
  8
0
100
AcDbLine
 10
-5.499999999999967
 20
-53.00000000000008
 30
0.0
 11
-5.499999999999967
 21
-47.00000000000009
 31
0.0
  0
CIRCLE
  5
A10
330
9DD
100
AcDbEntity
  8
0
100
AcDbCircle
 10
12.50000000000003
 20
-85.00000000000008
 30
0.0
 40
2.5
  0
CIRCLE
  5
A11
330
9DD
100
AcDbEntity
  8
0
100
AcDbCircle
 10
22.50000000000003
 20
-76.70000000000007
 30
0.0
 40
2.5
  0
CIRCLE
  5
A12
330
9DD
100
AcDbEntity
  8
0
100
AcDbCircle
 10
-12.49999999999996
 20
-62.25000000000005
 30
0.0
 40
2.5
  0
CIRCLE
  5
A13
330
9DD
100
AcDbEntity
  8
0
100
AcDbCircle
 10
-22.49999999999994
 20
-50.00000000000007
 30
0.0
 40
2.5
  0
CIRCLE
  5
A14
330
9DD
100
AcDbEntity
  8
0
100
AcDbCircle
 10
-12.49999999999996
 20
-37.75000000000007
 30
0.0
 40
2.5
  0
CIRCLE
  5
A15
330
9DD
100
AcDbEntity
  8
0
100
AcDbCircle
 10
12.50000000000004
 20
-34.50000000000009
 30
0.0
 40
2.5
  0
CIRCLE
  5
A16
330
9DD
100
AcDbEntity
  8
0
100
AcDbCircle
 10
22.50000000000006
 20
-22.50000000000008
 30
0.0
 40
2.5
  0
CIRCLE
  5
A17
330
9DD
100
AcDbEntity
  8
0
100
AcDbCircle
 10
22.50000000000007
 20
-7.500000000000106
 30
0.0
 40
2.5
  0
LINE
  5
A18
330
9DD
100
AcDbEntity
  8
0
100
AcDbLine
 10
30.00000000000005
 20
-4.000000000000092
 30
0.0
 11
30.0
 21
-88.50000000000006
 31
0.0
  0
LINE
  5
A19
330
9DD
100
AcDbEntity
  8
0
100
AcDbLine
 10
3.749999999999988
 20
0.0
 30
0.0
 11
26.00000000000007
 21
0.0
 31
0.0
  0
ARC
  5
A1A
330
9DD
100
AcDbEntity
  8
0
100
AcDbCircle
 10
2.000000000000033
 20
-27.50000000000007
 30
0.0
 40
2.5
100
AcDbArc
 50
314.4270040008037
 51
45.57299599919598
  0
LINE
  5
A1B
330
9DD
100
AcDbEntity
  8
0
100
AcDbLine
 10
-9.999999999999975
 20
-30.00000000000004
 30
0.0
 11
-1.250000000000038
 21
-30.00000000000005
 31
0.0
  0
ARC
  5
A1C
330
9DD
100
AcDbEntity
  8
0
100
AcDbCircle
 10
-9.999999999999975
 20
-50.00000000000007
 30
0.0
 40
20.00000000000001
100
AcDbArc
 50
90.0
 51
270.0
  0
LINE
  5
A1D
330
9DD
100
AcDbEntity
  8
0
100
AcDbLine
 10
-3.750000000000036
 20
-70.00000000000008
 30
0.0
 11
-9.999999999999978
 21
-70.00000000000008
 31
0.0
  0
ARC
  5
A1E
330
9DD
100
AcDbEntity
  8
0
100
AcDbCircle
 10
2.000000000000029
 20
-72.50000000000008
 30
0.0
 40
2.5
100
AcDbArc
 50
314.4270040008044
 51
45.57299599919638
  0
LINE
  5
A1F
330
9DD
100
AcDbEntity
  8
0
100
AcDbLine
 10
26.0
 20
-92.50000000000007
 30
0.0
 11
3.749999999999982
 21
-92.50000000000007
 31
0.0
  0
LINE
  5
A20
330
9DD
100
AcDbEntity
  8
0
100
AcDbLine
 10
-30.0
 20
-176.0000000000001
 30
0.0
 11
-30.00000000000003
 21
-101.5000000000001
 31
0.0
  0
LINE
  5
A21
330
9DD
100
AcDbEntity
  8
0
100
AcDbLine
 10
-1.250000000000014
 20
-3.999999999999985
 30
0.0
 11
-1.250000000000014
 21
-176.0
 31
0.0
  0
LINE
  5
A22
330
9DD
100
AcDbEntity
  8
0
100
AcDbLine
 10
1.249999999999985
 20
-176.0
 30
0.0
 11
1.249999999999985
 21
-3.999999999999985
 31
0.0
  0
ARC
  5
A23
330
9DD
100
AcDbEntity
  8
0
100
AcDbCircle
 10
-2.000000000000031
 20
-117.5345397099057
 30
0.0
 40
2.465460290094497
100
AcDbArc
 50
135.2191824157073
 51
270.0
  0
LINE
  5
A24
330
9DD
100
AcDbEntity
  8
0
100
AcDbLine
 10
-2.000000000000031
 20
-120.0000000000001
 30
0.0
 11
-1.250000000000039
 21
-120.0000000000001
 31
0.0
  0
LINE
  5
A25
330
9DD
100
AcDbEntity
  8
0
100
AcDbLine
 10
3.749999999999969
 20
-120.0000000000001
 30
0.0
 11
9.99999999999996
 21
-120.0000000000001
 31
0.0
  0
ARC
  5
A26
330
9DD
100
AcDbEntity
  8
0
100
AcDbCircle
 10
9.99999999999996
 20
-140.0000000000001
 30
0.0
 40
20.0
100
AcDbArc
 50
270.0
 51
90.0
  0
LINE
  5
A27
330
9DD
100
AcDbEntity
  8
0
100
AcDbLine
 10
9.99999999999996
 20
-160.0000000000001
 30
0.0
 11
3.541287847477845
 21
-160.0000000000001
 31
0.0
  0
LINE
  5
A28
330
9DD
100
AcDbEntity
  8
0
100
AcDbLine
 10
-3.750000000000006
 20
-180.0
 30
0.0
 11
-26.0
 21
-180.0
 31
0.0
  0
CIRCLE
  5
A29
330
9DD
100
AcDbEntity
  8
0
100
AcDbCircle
 10
-12.50000000000005
 20
-105.0
 30
0.0
 40
2.5
  0
CIRCLE
  5
A2A
330
9DD
100
AcDbEntity
  8
0
100
AcDbCircle
 10
-22.50000000000005
 20
-114.0
 30
0.0
 40
2.5
  0
CIRCLE
  5
A2B
330
9DD
100
AcDbEntity
  8
0
100
AcDbCircle
 10
-12.50000000000006
 20
-124.0
 30
0.0
 40
2.5
  0
CIRCLE
  5
A2C
330
9DD
100
AcDbEntity
  8
0
100
AcDbCircle
 10
12.49999999999994
 20
-127.75
 30
0.0
 40
2.5
  0
CIRCLE
  5
A2D
330
9DD
100
AcDbEntity
  8
0
100
AcDbCircle
 10
22.49999999999995
 20
-140.0000000000001
 30
0.0
 40
2.5
  0
CIRCLE
  5
A2E
330
9DD
100
AcDbEntity
  8
0
100
AcDbCircle
 10
12.49999999999994
 20
-152.25
 30
0.0
 40
2.5
  0
CIRCLE
  5
A2F
330
9DD
100
AcDbEntity
  8
0
100
AcDbCircle
 10
-22.50000000000006
 20
-157.5
 30
0.0
 40
2.5
  0
CIRCLE
  5
A30
330
9DD
100
AcDbEntity
  8
0
100
AcDbCircle
 10
-12.50000000000004
 20
-172.5
 30
0.0
 40
2.5
  0
LINE
  5
A31
330
9DD
100
AcDbEntity
  8
0
100
AcDbLine
 10
-5.500000000000044
 20
-136.8332371053375
 30
0.0
 11
-5.500000000000044
 21
-136.75
 31
0.0
  0
ARC
  5
A32
330
9DD
100
AcDbEntity
  8
0
100
AcDbCircle
 10
-0.0000000000000395
 20
-136.75
 30
0.0
 40
5.5
100
AcDbArc
 50
132.9858860801901
 51
180.0
  0
ARC
  5
A33
330
9DD
100
AcDbEntity
  8
0
100
AcDbCircle
 10
-0.0000000000000395
 20
-136.75
 30
0.0
 40
5.5
100
AcDbArc
 50
0.0
 51
47.01411391980956
  0
LINE
  5
A34
330
9DD
100
AcDbEntity
  8
0
100
AcDbLine
 10
5.499999999999949
 20
-136.75
 30
0.0
 11
5.499999999999949
 21
-142.75
 31
0.0
  0
ARC
  5
A35
330
9DD
100
AcDbEntity
  8
0
100
AcDbCircle
 10
-0.0000000000000398
 20
-142.75
 30
0.0
 40
5.5
100
AcDbArc
 50
312.9858860801905
 51
0.0
  0
ARC
  5
A36
330
9DD
100
AcDbEntity
  8
0
100
AcDbCircle
 10
-0.000000000000056
 20
-100.7500000000001
 30
0.0
 40
47.5
100
AcDbArc
 50
251.2506591529812
 51
268.4920422457612
  0
ARC
  5
A37
330
9DD
100
AcDbEntity
  8
0
100
AcDbCircle
 10
-13.50000000000006
 20
-140.5212207506886
 30
0.0
 40
5.500000000000001
100
AcDbArc
 50
71.25065915298108
 51
251.2506591529809
  0
ARC
  5
A38
330
9DD
100
AcDbEntity
  8
0
100
AcDbCircle
 10
-0.000000000000056
 20
-100.7500000000001
 30
0.0
 40
36.5
100
AcDbArc
 50
251.2506591529811
 51
261.3333785832649
  0
ARC
  5
A39
330
9DD
100
AcDbEntity
  8
0
100
AcDbCircle
 10
-2.000000000000033
 20
-162.5000000000001
 30
0.0
 40
2.5
100
AcDbArc
 50
134.4270040008055
 51
225.5729959991946
  0
LINE
  5
A3A
330
9DD
100
AcDbEntity
  8
0
100
AcDbLine
 10
-26.00000000000002
 20
-97.50000000000007
 30
0.0
 11
-3.750000000000004
 21
-97.50000000000007
 31
0.0
  0
LINE
  5
A3B
330
9DD
100
AcDbEntity
  8
0
100
AcDbLine
 10
3.749999999999988
 20
0.0
 30
0.0
 11
1.249999999999984
 21
0.0
 31
0.0
  0
LINE
  5
A3C
330
9DD
100
AcDbEntity
  8
0
100
AcDbLine
 10
-2.500000000000018
 20
-115.0690794198112
 30
0.0
 11
-1.256555044990168
 21
-115.0690794198112
 31
0.0
  0
SPLINE
  5
A3D
330
9DD
100
AcDbEntity
  8
0
100
AcDbSpline
210
0.0
220
0.0
230
1.0
 70
     8
 71
     3
 72
    12
 73
     8
 74
     0
 42
0.000000001
 43
0.0000000001
 40
0.0
 40
0.0
 40
0.0
 40
0.0
 40
0.0370763727855552
 40
0.0370763727855552
 40
0.0540218029004112
 40
0.0540218029004112
 40
0.0699389242090573
 40
0.0699389242090573
 40
0.0699389242090573
 40
0.0699389242090573
 10
-3.750000000000006
 20
-115.7978778424044
 30
0.0
 10
-3.676168932618135
 20
-115.6987670719971
 30
0.0
 10
-3.501222582460086
 20
-115.4804018038588
 30
0.0
 10
-3.118793711086468
 20
-115.2312021341402
 30
0.0
 10
-2.991945470762649
 20
-115.1695312134096
 30
0.0
 10
-2.739725850602424
 20
-115.0891597612913
 30
0.0
 10
-2.61789307487604
 20
-115.0690750780235
 30
0.0
 10
-2.500000000000021
 20
-115.0690794198112
 30
0.0
  0
SPLINE
  5
A3E
330
9DD
100
AcDbEntity
  8
0
100
AcDbSpline
210
0.0
220
0.0
230
1.0
 70
     8
 71
     3
 72
    12
 73
     8
 74
     0
 42
0.000000001
 43
0.0000000001
 40
0.0007565680298201
 40
0.0007565680298201
 40
0.0007565680298201
 40
0.0007565680298201
 40
0.1367652199096408
 40
0.1367652199096408
 40
0.205772904361879
 40
0.205772904361879
 40
0.3065498011335773
 40
0.3065498011335773
 40
0.3065498011335773
 40
0.3065498011335773
 10
-1.256554727979162
 20
-115.0690844341812
 30
0.0
 10
-1.649496006383031
 20
-115.0696888105025
 30
0.0
 10
-2.070958367268862
 20
-115.1249344757279
 30
0.0
 10
-2.709592164724624
 20
-115.2982531811565
 30
0.0
 10
-2.923927869647445
 20
-115.3719227551606
 30
0.0
 10
-3.438179614408962
 20
-115.5953780622336
 30
0.0
 10
-3.650712046477804
 20
-115.7313574675928
 30
0.0
 10
-3.749999999999999
 20
-115.7978778424044
 30
0.0
  0
LINE
  5
A3F
330
9DD
100
AcDbEntity
  8
0
100
AcDbLine
 10
-3.750000000000006
 20
-180.0
 30
0.0
 11
-1.250000000000029
 21
-180.0
 31
0.0
  0
ENDBLK
  5
9DF
330
9DD
100
AcDbEntity
  8
0
100
AcDbBlockEnd
  0
BLOCK
  5
A41
330
A40
100
AcDbEntity
  8
0
100
AcDbBlockBegin
  2
CBH180-Left
 70
     0
 10
0.0
 20
0.0
 30
0.0
  3
CBH180-Left
  1

  0
LINE
  5
A43
330
A40
100
AcDbEntity
  8
0
100
AcDbLine
 10
2.500000000000035
 20
-13.50000000000006
 30
0.0
 11
2.500000000000035
 21
-10.50000000000012
 31
0.0
  0
LINE
  5
A44
330
A40
100
AcDbEntity
  8
0
100
AcDbLine
 10
2.500000000000036
 20
-13.50000000000006
 30
0.0
 11
5.000000000000045
 21
-13.50000000000006
 31
0.0
  0
LINE
  5
A45
330
A40
100
AcDbEntity
  8
0
100
AcDbLine
 10
5.000000000000046
 20
-10.50000000000012
 30
0.0
 11
2.500000000000035
 21
-10.50000000000012
 31
0.0
  0
LINE
  5
A46
330
A40
100
AcDbEntity
  8
0
100
AcDbLine
 10
30.50000000000001
 20
-13.50000000000009
 30
0.0
 11
5.000000000000048
 21
-13.50000000000006
 31
0.0
  0
ARC
  5
A47
330
A40
100
AcDbEntity
  8
0
100
AcDbCircle
 10
30.50000000000001
 20
-12.00000000000009
 30
0.0
 40
1.499999999999994
100
AcDbArc
 50
270.0
 51
90.0
  0
LINE
  5
A48
330
A40
100
AcDbEntity
  8
0
100
AcDbLine
 10
5.000000000000046
 20
-10.50000000000011
 30
0.0
 11
30.5
 21
-10.50000000000007
 31
0.0
  0
CIRCLE
  5
A49
330
A40
100
AcDbEntity
  8
0
100
AcDbCircle
 10
97.50000000000001
 20
-165.0
 30
0.0
 40
7.749999999999995
  0
CIRCLE
  5
A4A
330
A40
100
AcDbEntity
  8
0
100
AcDbCircle
 10
97.50000000000001
 20
-135.0
 30
0.0
 40
7.749999999999995
  0
CIRCLE
  5
A4B
330
A40
100
AcDbEntity
  8
0
100
AcDbCircle
 10
97.50000000000001
 20
-105.0
 30
0.0
 40
7.749999999999995
  0
CIRCLE
  5
A4C
330
A40
100
AcDbEntity
  8
0
100
AcDbCircle
 10
97.50000000000001
 20
-75.00000000000001
 30
0.0
 40
7.749999999999995
  0
CIRCLE
  5
A4D
330
A40
100
AcDbEntity
  8
0
100
AcDbCircle
 10
97.50000000000001
 20
-45.0
 30
0.0
 40
7.749999999999995
  0
LINE
  5
A4E
330
A40
100
AcDbEntity
  8
0
100
AcDbLine
 10
69.74999999999993
 20
-22.50000000000001
 30
0.0
 11
69.75000000000005
 21
-157.5
 31
0.0
  0
ARC
  5
A4F
330
A40
100
AcDbEntity
  8
0
100
AcDbCircle
 10
68.25000000000002
 20
-157.5
 30
0.0
 40
1.499999999999994
100
AcDbArc
 50
180.0
 51
0.0
  0
LINE
  5
A50
330
A40
100
AcDbEntity
  8
0
100
AcDbLine
 10
66.75000000000007
 20
-157.5
 30
0.0
 11
66.75000000000007
 21
-22.5
 31
0.0
  0
ARC
  5
A51
330
A40
100
AcDbEntity
  8
0
100
AcDbCircle
 10
68.25000000000002
 20
-22.50000000000001
 30
0.0
 40
1.499999999999994
100
AcDbArc
 50
0.0
 51
180.0
  0
ARC
  5
A52
330
A40
100
AcDbEntity
  8
0
100
AcDbCircle
 10
2.500000000000035
 20
-16.00000000000006
 30
0.0
 40
2.5
100
AcDbArc
 50
89.99999999999998
 51
180.0
  0
LINE
  5
A53
330
A40
100
AcDbEntity
  8
0
100
AcDbLine
 10
0.0
 20
-8.000000000000095
 30
0.0
 11
0.0
 21
-16.00000000000008
 31
0.0
  0
ARC
  5
A54
330
A40
100
AcDbEntity
  8
0
100
AcDbCircle
 10
2.500000000000035
 20
-8.000000000000131
 30
0.0
 40
2.499999999999991
100
AcDbArc
 50
180.0
 51
270.0
  0
LINE
  5
A55
330
A40
100
AcDbEntity
  8
0
100
AcDbLine
 10
2.500000000000031
 20
-30.00000000000007
 30
0.0
 11
2.500000000000033
 21
-25.7146428928643
 31
0.0
  0
LINE
  5
A56
330
A40
100
AcDbEntity
  8
0
100
AcDbLine
 10
2.500000000000022
 20
-30.00000000000007
 30
0.0
 11
2.500000000000018
 21
-70.00000000000008
 31
0.0
  0
LINE
  5
A57
330
A40
100
AcDbEntity
  8
0
100
AcDbLine
 10
2.500000000000029
 20
-74.28535710713584
 30
0.0
 11
2.500000000000028
 21
-70.00000000000008
 31
0.0
  0
LINE
  5
A58
330
A40
100
AcDbEntity
  8
0
100
AcDbLine
 10
0.0
 20
-101.5000000000001
 30
0.0
 11
0.0
 21
-176.0000000000001
 31
0.0
  0
LINE
  5
A59
330
A40
100
AcDbEntity
  8
0
100
AcDbLine
 10
2.499999999999842
 20
-176.0000000000001
 30
0.0
 11
2.499999999999843
 21
-101.5000000000001
 31
0.0
  0
LINE
  5
A5A
330
A40
100
AcDbEntity
  8
0
100
AcDbLine
 10
113.5
 20
-3.999999999999985
 30
0.0
 11
113.5
 21
-176.0
 31
0.0
  0
LINE
  5
A5B
330
A40
100
AcDbEntity
  8
0
100
AcDbLine
 10
104.5698511713309
 20
0.0
 30
0.0
 11
109.5
 21
0.0
 31
0.0
  0
LINE
  5
A5C
330
A40
100
AcDbEntity
  8
0
100
AcDbLine
 10
102.7499999999999
 20
-5.000000000000071
 30
0.0
 11
104.5698511713309
 21
0.0
 31
0.0
  0
LINE
  5
A5D
330
A40
100
AcDbEntity
  8
0
100
AcDbLine
 10
102.75
 20
-10.25658350974749
 30
0.0
 11
102.7499999999999
 21
-5.000000000000071
 31
0.0
  0
ARC
  5
A5E
330
A40
100
AcDbEntity
  8
0
100
AcDbCircle
 10
100.4999999999999
 20
-15.00000000000004
 30
0.0
 40
5.25
100
AcDbArc
 50
270.0
 51
64.62306647484749
  0
LINE
  5
A5F
330
A40
100
AcDbEntity
  8
0
100
AcDbLine
 10
97.49999999999998
 20
-20.25000000000007
 30
0.0
 11
100.4999999999999
 21
-20.25000000000007
 31
0.0
  0
ARC
  5
A60
330
A40
100
AcDbEntity
  8
0
100
AcDbCircle
 10
97.49999999999998
 20
-15.00000000000004
 30
0.0
 40
5.25
100
AcDbArc
 50
180.0
 51
270.0
  0
LINE
  5
A61
330
A40
100
AcDbEntity
  8
0
100
AcDbLine
 10
92.24999999999996
 20
0.0
 30
0.0
 11
92.24999999999996
 21
-15.00000000000004
 31
0.0
  0
LINE
  5
A62
330
A40
100
AcDbEntity
  8
0
100
AcDbLine
 10
5.000000000000035
 20
0.0
 30
0.0
 11
92.24999999999996
 21
0.0
 31
0.0
  0
LINE
  5
A63
330
A40
100
AcDbEntity
  8
0
100
AcDbLine
 10
14.73000000000002
 20
-25.00000000000007
 30
0.0
 11
5.000000000000035
 21
-25.00000000000004
 31
0.0
  0
ARC
  5
A64
330
A40
100
AcDbEntity
  8
0
100
AcDbCircle
 10
14.73000000000002
 20
-50.00000000000007
 30
0.0
 40
25.0
100
AcDbArc
 50
270.0
 51
90.0
  0
LINE
  5
A65
330
A40
100
AcDbEntity
  8
0
100
AcDbLine
 10
5.000000000000035
 20
-75.00000000000006
 30
0.0
 11
14.73000000000002
 21
-75.00000000000006
 31
0.0
  0
LINE
  5
A66
330
A40
100
AcDbEntity
  8
0
100
AcDbLine
 10
5.500000000000007
 20
-92.50000000000007
 30
0.0
 11
5.000000000000035
 21
-92.50000000000007
 31
0.0
  0
ARC
  5
A67
330
A40
100
AcDbEntity
  8
0
100
AcDbCircle
 10
5.500000000000007
 20
-95.00000000000007
 30
0.0
 40
2.499999999999995
100
AcDbArc
 50
270.0
 51
90.0
  0
LINE
  5
A68
330
A40
100
AcDbEntity
  8
0
100
AcDbLine
 10
5.000000000000035
 20
-97.50000000000007
 30
0.0
 11
5.500000000000007
 21
-97.50000000000007
 31
0.0
  0
LINE
  5
A69
330
A40
100
AcDbEntity
  8
0
100
AcDbLine
 10
16.58720193417888
 20
-115.0690794198113
 30
0.0
 11
5.000000000000035
 21
-115.0690794198113
 31
0.0
  0
ARC
  5
A6A
330
A40
100
AcDbEntity
  8
0
100
AcDbCircle
 10
14.73
 20
-140.0000000000001
 30
0.0
 40
25.00000000000003
100
AcDbArc
 50
270.0
 51
85.73968197142859
  0
LINE
  5
A6B
330
A40
100
AcDbEntity
  8
0
100
AcDbLine
 10
5.000000000000017
 20
-165.0000000000001
 30
0.0
 11
14.73
 21
-165.0000000000001
 31
0.0
  0
LINE
  5
A6C
330
A40
100
AcDbEntity
  8
0
100
AcDbLine
 10
109.5
 20
-180.0
 30
0.0
 11
5.000000000000017
 21
-180.0
 31
0.0
  0
LINE
  5
A6D
330
A40
100
AcDbEntity
  8
0
100
AcDbLine
 10
0.0
 20
-70.00000000000008
 30
0.0
 11
0.0
 21
-74.28535710713584
 31
0.0
  0
LINE
  5
A6E
330
A40
100
AcDbEntity
  8
0
100
AcDbLine
 10
0.0
 20
-70.00000000000008
 30
0.0
 11
0.0
 21
-30.00000000000007
 31
0.0
  0
LINE
  5
A6F
330
A40
100
AcDbEntity
  8
0
100
AcDbLine
 10
0.0
 20
-25.7146428928643
 30
0.0
 11
0.0
 21
-30.00000000000007
 31
0.0
  0
LINE
  5
A70
330
A40
100
AcDbEntity
  8
0
100
AcDbLine
 10
0.0
 20
-30.00000000000004
 30
0.0
 11
2.500000000000021
 21
-30.00000000000004
 31
0.0
  0
LINE
  5
A71
330
A40
100
AcDbEntity
  8
0
100
AcDbLine
 10
0.0
 20
-70.00000000000008
 30
0.0
 11
2.500000000000018
 21
-70.00000000000008
 31
0.0
  0
LINE
  5
A72
330
A40
100
AcDbEntity
  8
0
100
AcDbLine
 10
0.0
 20
-97.50000000000007
 30
0.0
 11
0.0
 21
-101.5000000000001
 31
0.0
  0
LINE
  5
A73
330
A40
100
AcDbEntity
  8
0
100
AcDbLine
 10
0.0
 20
-101.5000000000001
 30
0.0
 11
2.499999999999843
 21
-101.5000000000001
 31
0.0
  0
LINE
  5
A74
330
A40
100
AcDbEntity
  8
0
100
AcDbLine
 10
2.499999999999843
 20
-101.5000000000001
 30
0.0
 11
2.499999999999871
 21
-97.50000000000007
 31
0.0
  0
LINE
  5
A75
330
A40
100
AcDbEntity
  8
0
100
AcDbLine
 10
2.499999999999871
 20
-97.50000000000007
 30
0.0
 11
0.0
 21
-97.50000000000007
 31
0.0
  0
LINE
  5
A76
330
A40
100
AcDbEntity
  8
0
100
AcDbLine
 10
2.499999999999842
 20
-176.0000000000001
 30
0.0
 11
0.0
 21
-176.0000000000001
 31
0.0
  0
LINE
  5
A77
330
A40
100
AcDbEntity
  8
0
100
AcDbLine
 10
0.0
 20
-176.0000000000001
 30
0.0
 11
0.0
 21
-180.0
 31
0.0
  0
LINE
  5
A78
330
A40
100
AcDbEntity
  8
0
100
AcDbLine
 10
0.0
 20
-180.0
 30
0.0
 11
2.49999999999987
 21
-180.0
 31
0.0
  0
LINE
  5
A79
330
A40
100
AcDbEntity
  8
0
100
AcDbLine
 10
2.49999999999987
 20
-180.0
 30
0.0
 11
2.499999999999842
 21
-176.0000000000001
 31
0.0
  0
LINE
  5
A7A
330
A40
100
AcDbEntity
  8
0
100
AcDbLine
 10
113.5
 20
-176.0
 30
0.0
 11
109.5
 21
-180.0
 31
0.0
  0
LINE
  5
A7B
330
A40
100
AcDbEntity
  8
0
100
AcDbLine
 10
109.5
 20
0.0
 30
0.0
 11
113.5
 21
-3.999999999999985
 31
0.0
  0
CIRCLE
  5
A7C
330
A40
100
AcDbEntity
  8
0
100
AcDbCircle
 10
97.50000000000001
 20
-75.00000000000001
 30
0.0
 40
5.249999999999999
  0
CIRCLE
  5
A7D
330
A40
100
AcDbEntity
  8
0
100
AcDbCircle
 10
97.50000000000001
 20
-105.0
 30
0.0
 40
5.249999999999999
  0
CIRCLE
  5
A7E
330
A40
100
AcDbEntity
  8
0
100
AcDbCircle
 10
97.50000000000001
 20
-135.0
 30
0.0
 40
5.249999999999999
  0
CIRCLE
  5
A7F
330
A40
100
AcDbEntity
  8
0
100
AcDbCircle
 10
97.50000000000001
 20
-45.0
 30
0.0
 40
5.249999999999999
  0
CIRCLE
  5
A80
330
A40
100
AcDbEntity
  8
0
100
AcDbCircle
 10
97.50000000000001
 20
-165.0
 30
0.0
 40
5.249999999999999
  0
LINE
  5
A81
330
A40
100
AcDbEntity
  8
0
100
AcDbLine
 10
0.0
 20
0.0
 30
0.0
 11
5.000000000000034
 21
0.0
 31
0.0
  0
LINE
  5
A82
330
A40
100
AcDbEntity
  8
0
100
AcDbLine
 10
0.0
 20
-8.000000000000149
 30
0.0
 11
0.0
 21
0.0
 31
0.0
  0
LINE
  5
A83
330
A40
100
AcDbEntity
  8
0
100
AcDbLine
 10
0.0
 20
-92.50000000000007
 30
0.0
 11
0.0
 21
-74.28535710713584
 31
0.0
  0
LINE
  5
A84
330
A40
100
AcDbEntity
  8
0
100
AcDbLine
 10
0.0
 20
-25.71464289286429
 30
0.0
 11
0.0
 21
-16.00000000000006
 31
0.0
  0
SPLINE
  5
A85
330
A40
100
AcDbEntity
  8
0
100
AcDbSpline
210
0.0
220
0.0
230
1.0
 70
     8
 71
     3
 72
    12
 73
     8
 74
     0
 42
0.000000001
 43
0.0000000001
 40
0.0
 40
0.0
 40
0.0
 40
0.0
 40
0.04839393156936
 40
0.04839393156936
 40
0.0973081656897928
 40
0.0973081656897928
 40
0.1727322110457007
 40
0.1727322110457007
 40
0.1727322110457007
 40
0.1727322110457007
 10
2.834936490538919
 20
-25.00000000000005
 30
0.0
 10
2.75427993796028
 20
-24.99999511656678
 30
0.0
 10
2.688885986770894
 20
-25.02776488362123
 30
0.0
 10
2.588072378002031
 20
-25.13482956837596
 30
0.0
 10
2.554445198878325
 20
-25.21294454907632
 30
0.0
 10
2.500111425961513
 20
-25.45964149185853
 30
0.0
 10
2.500000000000035
 20
-25.62699651773042
 30
0.0
 10
2.500000000000035
 20
-25.7146428928643
 30
0.0
  0
LINE
  5
A86
330
A40
100
AcDbEntity
  8
0
100
AcDbLine
 10
5.000000000000035
 20
-92.50000000000012
 30
0.0
 11
0.0
 21
-92.50000000000012
 31
0.0
  0
LINE
  5
A87
330
A40
100
AcDbEntity
  8
0
100
AcDbLine
 10
0.6698729810778037
 20
-75.00000000000008
 30
0.0
 11
5.000000000000034
 21
-75.00000000000008
 31
0.0
  0
SPLINE
  5
A88
330
A40
100
AcDbEntity
  8
0
100
AcDbSpline
210
0.0
220
0.0
230
1.0
 70
     8
 71
     3
 72
    10
 73
     6
 74
     0
 42
0.000000001
 43
0.0000000001
 40
0.0
 40
0.0
 40
0.0
 40
0.0
 40
0.1365716105018851
 40
0.1365716105018851
 40
0.3426352983123926
 40
0.3426352983123926
 40
0.3426352983123926
 40
0.3426352983123926
 10
0.6698729810778057
 20
-75.00000000000007
 30
0.0
 10
0.4422536302469876
 20
-75.0000032081127
 30
0.0
 10
0.2711135565682744
 20
-74.94568294175301
 30
0.0
 10
-0.0063721854851247
 20
-74.66061251409787
 30
0.0
 10
0.0000000000000317
 20
-74.39041218437506
 30
0.0
 10
0.0000000000000319
 20
-74.28535710713582
 30
0.0
  0
SPLINE
  5
A89
330
A40
100
AcDbEntity
  8
0
100
AcDbSpline
210
0.0
220
0.0
230
1.0
 70
     8
 71
     3
 72
    12
 73
     8
 74
     0
 42
0.000000001
 43
0.0000000001
 40
0.0
 40
0.0
 40
0.0
 40
0.0
 40
0.0373203676587967
 40
0.0373203676587967
 40
0.0541955352955324
 40
0.0541955352955324
 40
0.0700894530141588
 40
0.0700894530141588
 40
0.0700894530141588
 40
0.0700894530141588
 10
2.500000000000032
 20
-74.28535710713582
 30
0.0
 10
2.500000000000032
 20
-74.38412573967275
 30
0.0
 10
2.498255977977759
 20
-74.59954484458187
 30
0.0
 10
2.579336079331908
 20
-74.84299746645374
 30
0.0
 10
2.615116159469667
 20
-74.90267980818555
 30
0.0
 10
2.710479480039934
 20
-74.9805457969756
 30
0.0
 10
2.767475119538231
 20
-75.00000408451763
 30
0.0
 10
2.834936490538919
 20
-75.00000000000007
 30
0.0
  0
LINE
  5
A8A
330
A40
100
AcDbEntity
  8
0
100
AcDbLine
 10
1.674298417745281
 20
-74.28535710713584
 30
0.0
 11
2.500000000000029
 21
-74.28535710713584
 31
0.0
  0
LINE
  5
A8B
330
A40
100
AcDbEntity
  8
0
100
AcDbLine
 10
0.0
 20
-74.28535710713584
 30
0.0
 11
1.674298417745281
 21
-74.28535710713584
 31
0.0
  0
SPLINE
  5
A8C
330
A40
100
AcDbEntity
  8
0
100
AcDbSpline
210
0.0
220
0.0
230
1.0
 70
     8
 71
     3
 72
    10
 73
     6
 74
     0
 42
0.000000001
 43
0.0000000001
 40
0.0
 40
0.0
 40
0.0
 40
0.0
 40
0.0575824048808849
 40
0.0575824048808849
 40
0.096987012960145
 40
0.096987012960145
 40
0.096987012960145
 40
0.096987012960145
 10
0.0000000000000355
 20
-25.71464289286429
 30
0.0
 10
0.0000000000000353
 20
-25.60983508596466
 30
0.0
 10
-0.0058302025870234
 20
-25.34435353233718
 30
0.0
 10
0.2659924112202925
 20
-25.05593831424707
 30
0.0
 10
0.4387957212760649
 20
-24.99999674315085
 30
0.0
 10
0.6698729810778015
 20
-25.00000000000007
 30
0.0
  0
LINE
  5
A8D
330
A40
100
AcDbEntity
  8
0
100
AcDbLine
 10
1.674298417743519
 20
-25.71464289286429
 30
0.0
 11
0.0
 21
-25.71464289286429
 31
0.0
  0
LINE
  5
A8E
330
A40
100
AcDbEntity
  8
0
100
AcDbLine
 10
2.500000000000033
 20
-25.71464289286429
 30
0.0
 11
1.674298417743519
 21
-25.71464289286429
 31
0.0
  0
LINE
  5
A8F
330
A40
100
AcDbEntity
  8
0
100
AcDbLine
 10
5.000000000000035
 20
-24.99999999999988
 30
0.0
 11
0.6698729810778048
 21
-24.99999999999988
 31
0.0
  0
LINE
  5
A90
330
A40
100
AcDbEntity
  8
0
100
AcDbLine
 10
2.834936490538907
 20
-115.0690794198112
 30
0.0
 11
5.000000000000036
 21
-115.0690794198112
 31
0.0
  0
LINE
  5
A91
330
A40
100
AcDbEntity
  8
0
100
AcDbLine
 10
5.000000000000037
 20
-97.50000000000007
 30
0.0
 11
2.500000000000007
 21
-97.50000000000007
 31
0.0
  0
SPLINE
  5
A92
330
A40
100
AcDbEntity
  8
0
100
AcDbSpline
210
0.0
220
0.0
230
1.0
 70
     8
 71
     3
 72
    12
 73
     8
 74
     0
 42
0.000000001
 43
0.0000000001
 40
0.0
 40
0.0
 40
0.0
 40
0.0
 40
0.0370763727855552
 40
0.0370763727855552
 40
0.0540218029004112
 40
0.0540218029004112
 40
0.0699389242090573
 40
0.0699389242090573
 40
0.0699389242090573
 40
0.0699389242090573
 10
2.500000000000006
 20
-115.7978778424044
 30
0.0
 10
2.500000000000006
 20
-115.6987670719971
 30
0.0
 10
2.49799945141923
 20
-115.4804018038588
 30
0.0
 10
2.577894111616064
 20
-115.2312021341402
 30
0.0
 10
2.613640690469956
 20
-115.1695312134096
 30
0.0
 10
2.709492306087322
 20
-115.0891597612913
 30
0.0
 10
2.766870892023644
 20
-115.0690750780235
 30
0.0
 10
2.834936490538906
 20
-115.0690794198112
 30
0.0
  0
LINE
  5
A93
330
A40
100
AcDbEntity
  8
0
100
AcDbLine
 10
2.500000000000021
 20
-180.0
 30
0.0
 11
5.000000000000018
 21
-180.0
 31
0.0
  0
LINE
  5
A94
330
A40
100
AcDbEntity
  8
0
100
AcDbLine
 10
5.000000000000018
 20
-165.0
 30
0.0
 11
2.834936490538906
 21
-165.0
 31
0.0
  0
SPLINE
  5
A95
330
A40
100
AcDbEntity
  8
0
100
AcDbSpline
210
0.0
220
0.0
230
1.0
 70
     8
 71
     3
 72
    12
 73
     8
 74
     0
 42
0.000000001
 43
0.0000000001
 40
0.0
 40
0.0
 40
0.0
 40
0.0
 40
0.048393931568139
 40
0.048393931568139
 40
0.0973081656887726
 40
0.0973081656887726
 40
0.1727322110454438
 40
0.1727322110454438
 40
0.1727322110454438
 40
0.1727322110454438
 10
2.834936490538915
 20
-165.0000000000001
 30
0.0
 10
2.754279937962309
 20
-165.0000048834335
 30
0.0
 10
2.688885986773705
 20
-164.9722351163802
 30
0.0
 10
2.588072378003984
 20
-164.865170431628
 30
0.0
 10
2.554445198879442
 20
-164.7870554509272
 30
0.0
 10
2.500111425961437
 20
-164.540358508144
 30
0.0
 10
2.500000000000015
 20
-164.3730034822692
 30
0.0
 10
2.500000000000015
 20
-164.2853571071358
 30
0.0
  0
ENDBLK
  5
A42
330
A40
100
AcDbEntity
  8
0
100
AcDbBlockEnd
  0
BLOCK
  5
A97
330
A96
100
AcDbEntity
  8
0
100
AcDbBlockBegin
  2
CBH180-Right
 70
     0
 10
0.0
 20
0.0
 30
0.0
  3
CBH180-Right
  1

  0
LINE
  5
A99
330
A96
100
AcDbEntity
  8
0
100
AcDbLine
 10
-2.500000000000034
 20
-16.00000000000005
 30
0.0
 11
-5.00000000000004
 21
-16.00000000000005
 31
0.0
  0
LINE
  5
A9A
330
A96
100
AcDbEntity
  8
0
100
AcDbLine
 10
-5.00000000000004
 20
-8.000000000000113
 30
0.0
 11
-2.500000000000036
 21
-8.000000000000113
 31
0.0
  0
ARC
  5
A9B
330
A96
100
AcDbEntity
  8
0
100
AcDbCircle
 10
-2.500000000000039
 20
-10.50000000000008
 30
0.0
 40
2.499999999999955
100
AcDbArc
 50
90.0
 51
180.0
  0
LINE
  5
A9C
330
A96
100
AcDbEntity
  8
0
100
AcDbLine
 10
-5.000000000000042
 20
-16.00000000000006
 30
0.0
 11
-30.50000000000001
 21
-16.00000000000008
 31
0.0
  0
LINE
  5
A9D
330
A96
100
AcDbEntity
  8
0
100
AcDbLine
 10
-5.000000000000037
 20
-13.50000000000009
 30
0.0
 11
-5.000000000000037
 21
-10.50000000000009
 31
0.0
  0
CIRCLE
  5
A9E
330
A96
100
AcDbEntity
  8
0
100
AcDbCircle
 10
-97.50000000000001
 20
-75.00000000000001
 30
0.0
 40
5.249999999999999
  0
ARC
  5
A9F
330
A96
100
AcDbEntity
  8
0
100
AcDbCircle
 10
-30.50000000000001
 20
-12.00000000000009
 30
0.0
 40
4.0
100
AcDbArc
 50
90.0
 51
270.0
  0
LINE
  5
AA0
330
A96
100
AcDbEntity
  8
0
100
AcDbLine
 10
-30.50000000000001
 20
-8.000000000000078
 30
0.0
 11
-5.000000000000039
 21
-8.000000000000113
 31
0.0
  0
LINE
  5
AA1
330
A96
100
AcDbEntity
  8
0
100
AcDbLine
 10
-72.25000000000004
 20
-157.5
 30
0.0
 11
-72.24999999999996
 21
-22.5
 31
0.0
  0
ARC
  5
AA2
330
A96
100
AcDbEntity
  8
0
100
AcDbCircle
 10
-68.25000000000002
 20
-22.50000000000001
 30
0.0
 40
4.0
100
AcDbArc
 50
0.0
 51
180.0
  0
LINE
  5
AA3
330
A96
100
AcDbEntity
  8
0
100
AcDbLine
 10
-64.25000000000008
 20
-22.5
 30
0.0
 11
-64.25000000000008
 21
-157.5
 31
0.0
  0
ARC
  5
AA4
330
A96
100
AcDbEntity
  8
0
100
AcDbCircle
 10
-68.25000000000002
 20
-157.5
 30
0.0
 40
4.0
100
AcDbArc
 50
180.0
 51
0.0
  0
CIRCLE
  5
AA5
330
A96
100
AcDbEntity
  8
0
100
AcDbCircle
 10
-97.50000000000001
 20
-105.0
 30
0.0
 40
5.249999999999999
  0
CIRCLE
  5
AA6
330
A96
100
AcDbEntity
  8
0
100
AcDbCircle
 10
-97.50000000000001
 20
-135.0
 30
0.0
 40
5.249999999999999
  0
CIRCLE
  5
AA7
330
A96
100
AcDbEntity
  8
0
100
AcDbCircle
 10
-97.50000000000001
 20
-165.0
 30
0.0
 40
5.249999999999999
  0
CIRCLE
  5
AA8
330
A96
100
AcDbEntity
  8
0
100
AcDbCircle
 10
-97.50000000000001
 20
-45.0
 30
0.0
 40
5.249999999999999
  0
ARC
  5
AA9
330
A96
100
AcDbEntity
  8
0
100
AcDbCircle
 10
-2.500000000000039
 20
-13.50000000000005
 30
0.0
 40
2.5
100
AcDbArc
 50
180.0
 51
270.0
  0
LINE
  5
AAA
330
A96
100
AcDbEntity
  8
0
100
AcDbLine
 10
-2.500000000000049
 20
-88.50000000000006
 30
0.0
 11
-2.500000000000046
 21
-92.50000000000007
 31
0.0
  0
LINE
  5
AAB
330
A96
100
AcDbEntity
  8
0
100
AcDbLine
 10
-2.500000000000046
 20
-92.50000000000007
 30
0.0
 11
0.0
 21
-92.50000000000007
 31
0.0
  0
LINE
  5
AAC
330
A96
100
AcDbEntity
  8
0
100
AcDbLine
 10
0.0
 20
-92.50000000000007
 30
0.0
 11
0.0
 21
-88.50000000000006
 31
0.0
  0
LINE
  5
AAD
330
A96
100
AcDbEntity
  8
0
100
AcDbLine
 10
0.0
 20
-88.50000000000006
 30
0.0
 11
-2.500000000000049
 21
-88.50000000000006
 31
0.0
  0
LINE
  5
AAE
330
A96
100
AcDbEntity
  8
0
100
AcDbLine
 10
-2.500000000000054
 20
0.0
 30
0.0
 11
-2.500000000000057
 21
-4.000000000000092
 31
0.0
  0
LINE
  5
AAF
330
A96
100
AcDbEntity
  8
0
100
AcDbLine
 10
-2.500000000000057
 20
-4.000000000000092
 30
0.0
 11
0.0
 21
-4.000000000000092
 31
0.0
  0
LINE
  5
AB0
330
A96
100
AcDbEntity
  8
0
100
AcDbLine
 10
-109.5
 20
-180.0
 30
0.0
 11
-113.5
 21
-176.0
 31
0.0
  0
LINE
  5
AB1
330
A96
100
AcDbEntity
  8
0
100
AcDbLine
 10
-113.5
 20
-3.999999999999985
 30
0.0
 11
-109.5
 21
0.0
 31
0.0
  0
LINE
  5
AB2
330
A96
100
AcDbEntity
  8
0
100
AcDbLine
 10
0.0
 20
-4.000000000000092
 30
0.0
 11
0.0
 21
0.0
 31
0.0
  0
LINE
  5
AB3
330
A96
100
AcDbEntity
  8
0
100
AcDbLine
 10
0.0
 20
0.0
 30
0.0
 11
-2.500000000000054
 21
0.0
 31
0.0
  0
LINE
  5
AB4
330
A96
100
AcDbEntity
  8
0
100
AcDbLine
 10
-2.500000000000057
 20
-4.000000000000092
 30
0.0
 11
-2.500000000000049
 21
-88.50000000000006
 31
0.0
  0
LINE
  5
AB5
330
A96
100
AcDbEntity
  8
0
100
AcDbLine
 10
0.0
 20
-88.50000000000006
 30
0.0
 11
0.0
 21
-4.000000000000092
 31
0.0
  0
LINE
  5
AB6
330
A96
100
AcDbEntity
  8
0
100
AcDbLine
 10
0.0
 20
-120.0000000000002
 30
0.0
 11
0.0
 21
-115.7978778424044
 31
0.0
  0
LINE
  5
AB7
330
A96
100
AcDbEntity
  8
0
100
AcDbLine
 10
0.0
 20
-120.0000000000001
 30
0.0
 11
0.0
 21
-160.0000000000001
 31
0.0
  0
LINE
  5
AB8
330
A96
100
AcDbEntity
  8
0
100
AcDbLine
 10
0.0
 20
-164.2853571071358
 30
0.0
 11
0.0
 21
-160.0000000000001
 31
0.0
  0
LINE
  5
AB9
330
A96
100
AcDbEntity
  8
0
100
AcDbLine
 10
-113.5
 20
-176.0
 30
0.0
 11
-113.5
 21
-3.999999999999985
 31
0.0
  0
LINE
  5
ABA
330
A96
100
AcDbEntity
  8
0
100
AcDbLine
 10
-5.000000000000017
 20
-180.0
 30
0.0
 11
-109.5
 21
-180.0
 31
0.0
  0
LINE
  5
ABB
330
A96
100
AcDbEntity
  8
0
100
AcDbLine
 10
-14.73
 20
-165.0000000000001
 30
0.0
 11
-5.000000000000017
 21
-165.0000000000001
 31
0.0
  0
ARC
  5
ABC
330
A96
100
AcDbEntity
  8
0
100
AcDbCircle
 10
-14.73
 20
-140.0000000000001
 30
0.0
 40
25.00000000000003
100
AcDbArc
 50
94.26031802857144
 51
270.0
  0
LINE
  5
ABD
330
A96
100
AcDbEntity
  8
0
100
AcDbLine
 10
-5.000000000000035
 20
-115.0690794198113
 30
0.0
 11
-16.58720193417888
 21
-115.0690794198113
 31
0.0
  0
LINE
  5
ABE
330
A96
100
AcDbEntity
  8
0
100
AcDbLine
 10
-5.500000000000007
 20
-97.50000000000007
 30
0.0
 11
-5.000000000000035
 21
-97.50000000000007
 31
0.0
  0
ARC
  5
ABF
330
A96
100
AcDbEntity
  8
0
100
AcDbCircle
 10
-5.500000000000007
 20
-95.00000000000007
 30
0.0
 40
2.499999999999995
100
AcDbArc
 50
90.0
 51
270.0
  0
LINE
  5
AC0
330
A96
100
AcDbEntity
  8
0
100
AcDbLine
 10
-5.000000000000035
 20
-92.50000000000007
 30
0.0
 11
-5.500000000000007
 21
-92.50000000000007
 31
0.0
  0
LINE
  5
AC1
330
A96
100
AcDbEntity
  8
0
100
AcDbLine
 10
-14.73000000000002
 20
-75.00000000000006
 30
0.0
 11
-5.000000000000035
 21
-75.00000000000006
 31
0.0
  0
ARC
  5
AC2
330
A96
100
AcDbEntity
  8
0
100
AcDbCircle
 10
-14.73000000000002
 20
-50.00000000000007
 30
0.0
 40
25.0
100
AcDbArc
 50
89.99999999999998
 51
270.0
  0
LINE
  5
AC3
330
A96
100
AcDbEntity
  8
0
100
AcDbLine
 10
-5.000000000000035
 20
-25.00000000000004
 30
0.0
 11
-14.73000000000002
 21
-25.00000000000007
 31
0.0
  0
LINE
  5
AC4
330
A96
100
AcDbEntity
  8
0
100
AcDbLine
 10
-92.24999999999996
 20
0.0
 30
0.0
 11
-5.000000000000035
 21
0.0
 31
0.0
  0
LINE
  5
AC5
330
A96
100
AcDbEntity
  8
0
100
AcDbLine
 10
-92.24999999999996
 20
-15.00000000000004
 30
0.0
 11
-92.24999999999996
 21
0.0
 31
0.0
  0
ARC
  5
AC6
330
A96
100
AcDbEntity
  8
0
100
AcDbCircle
 10
-97.49999999999998
 20
-15.00000000000004
 30
0.0
 40
5.25
100
AcDbArc
 50
270.0
 51
0.0
  0
LINE
  5
AC7
330
A96
100
AcDbEntity
  8
0
100
AcDbLine
 10
-100.4999999999999
 20
-20.25000000000007
 30
0.0
 11
-97.49999999999998
 21
-20.25000000000007
 31
0.0
  0
ARC
  5
AC8
330
A96
100
AcDbEntity
  8
0
100
AcDbCircle
 10
-100.4999999999999
 20
-15.00000000000004
 30
0.0
 40
5.25
100
AcDbArc
 50
115.3769335251525
 51
270.0
  0
LINE
  5
AC9
330
A96
100
AcDbEntity
  8
0
100
AcDbLine
 10
-102.7499999999999
 20
-5.000000000000071
 30
0.0
 11
-102.75
 21
-10.25658350974749
 31
0.0
  0
LINE
  5
ACA
330
A96
100
AcDbEntity
  8
0
100
AcDbLine
 10
-104.5698511713309
 20
0.0
 30
0.0
 11
-102.7499999999999
 21
-5.000000000000071
 31
0.0
  0
LINE
  5
ACB
330
A96
100
AcDbEntity
  8
0
100
AcDbLine
 10
-109.5
 20
0.0
 30
0.0
 11
-104.5698511713309
 21
0.0
 31
0.0
  0
LINE
  5
ACC
330
A96
100
AcDbEntity
  8
0
100
AcDbLine
 10
-2.500000000000026
 20
-115.7978778424044
 30
0.0
 11
-2.500000000000039
 21
-120.0000000000002
 31
0.0
  0
LINE
  5
ACD
330
A96
100
AcDbEntity
  8
0
100
AcDbLine
 10
-2.500000000000122
 20
-120.0000000000001
 30
0.0
 11
0.0
 21
-120.0000000000001
 31
0.0
  0
LINE
  5
ACE
330
A96
100
AcDbEntity
  8
0
100
AcDbLine
 10
-2.500000000000122
 20
-160.0000000000001
 30
0.0
 11
-2.500000000000122
 21
-120.0000000000001
 31
0.0
  0
LINE
  5
ACF
330
A96
100
AcDbEntity
  8
0
100
AcDbLine
 10
-2.500000000000122
 20
-160.0000000000001
 30
0.0
 11
0.0
 21
-160.0000000000001
 31
0.0
  0
LINE
  5
AD0
330
A96
100
AcDbEntity
  8
0
100
AcDbLine
 10
-2.500000000000038
 20
-160.0000000000001
 30
0.0
 11
-2.500000000000026
 21
-164.2853571071358
 31
0.0
  0
LINE
  5
AD1
330
A96
100
AcDbEntity
  8
0
100
AcDbLine
 10
0.0
 20
-97.50000000000007
 30
0.0
 11
0.0
 21
-115.7978778424044
 31
0.0
  0
LINE
  5
AD2
330
A96
100
AcDbEntity
  8
0
100
AcDbLine
 10
0.0
 20
-164.2853571071358
 30
0.0
 11
0.0
 21
-180.0
 31
0.0
  0
SPLINE
  5
AD3
330
A96
100
AcDbEntity
  8
0
100
AcDbSpline
210
0.0
220
0.0
230
1.0
 70
     8
 71
     3
 72
    12
 73
     8
 74
     0
 42
0.000000001
 43
0.0000000001
 40
0.0
 40
0.0
 40
0.0
 40
0.0
 40
0.0370763727855552
 40
0.0370763727855552
 40
0.0540218029004112
 40
0.0540218029004112
 40
0.0699389242090573
 40
0.0699389242090573
 40
0.0699389242090573
 40
0.0699389242090573
 10
-2.500000000000006
 20
-115.7978778424044
 30
0.0
 10
-2.500000000000006
 20
-115.6987670719971
 30
0.0
 10
-2.49799945141923
 20
-115.4804018038588
 30
0.0
 10
-2.577894111616064
 20
-115.2312021341402
 30
0.0
 10
-2.613640690469956
 20
-115.1695312134096
 30
0.0
 10
-2.709492306087322
 20
-115.0891597612913
 30
0.0
 10
-2.766870892023644
 20
-115.0690750780235
 30
0.0
 10
-2.834936490538906
 20
-115.0690794198112
 30
0.0
  0
SPLINE
  5
AD4
330
A96
100
AcDbEntity
  8
0
100
AcDbSpline
210
0.0
220
0.0
230
1.0
 70
     8
 71
     3
 72
    12
 73
     8
 74
     0
 42
0.000000001
 43
0.0000000001
 40
0.0
 40
0.0
 40
0.0
 40
0.0
 40
0.1367652199096408
 40
0.1367652199096408
 40
0.205772904361879
 40
0.205772904361879
 40
0.3065498011335773
 40
0.3065498011335773
 40
0.3065498011335773
 40
0.3065498011335773
 10
-0.6698729810778037
 20
-115.0690794198112
 30
0.0
 10
-0.4419309479013548
 20
-115.0690760346788
 30
0.0
 10
-0.2706648035778798
 20
-115.1242948808847
 30
0.0
 10
-0.1044031111445401
 20
-115.2982531811565
 30
0.0
 10
-0.0642156380813201
 20
-115.3719227551606
 30
0.0
 10
-0.0002620854904028
 20
-115.5953780622336
 30
0.0
 10
-0.0000000000000066
 20
-115.7313574675928
 30
0.0
 10
-0.0000000000000061
 20
-115.7978778424044
 30
0.0
  0
LINE
  5
AD5
330
A96
100
AcDbEntity
  8
0
100
AcDbLine
 10
-5.000000000000037
 20
-97.50000000000007
 30
0.0
 11
0.0
 21
-97.50000000000007
 31
0.0
  0
LINE
  5
AD6
330
A96
100
AcDbEntity
  8
0
100
AcDbLine
 10
-0.6698729810777998
 20
-115.0690794198113
 30
0.0
 11
-5.000000000000036
 21
-115.0690794198113
 31
0.0
  0
LINE
  5
AD7
330
A96
100
AcDbEntity
  8
0
100
AcDbLine
 10
-1.674689266129361
 20
-115.7978778424044
 30
0.0
 11
-2.500000000000026
 21
-115.7978778424044
 31
0.0
  0
LINE
  5
AD8
330
A96
100
AcDbEntity
  8
0
100
AcDbLine
 10
0.0
 20
-115.7978778424044
 30
0.0
 11
-1.674689266129361
 21
-115.7978778424044
 31
0.0
  0
LINE
  5
AD9
330
A96
100
AcDbEntity
  8
0
100
AcDbLine
 10
0.0
 20
-180.0
 30
0.0
 11
-5.000000000000018
 21
-180.0
 31
0.0
  0
LINE
  5
ADA
330
A96
100
AcDbEntity
  8
0
100
AcDbLine
 10
-5.000000000000018
 20
-165.0
 30
0.0
 11
-0.6698729810778204
 21
-165.0
 31
0.0
  0
SPLINE
  5
ADB
330
A96
100
AcDbEntity
  8
0
100
AcDbSpline
210
0.0
220
0.0
230
1.0
 70
     8
 71
     3
 72
    10
 73
     6
 74
     0
 42
0.000000001
 43
0.0000000001
 40
0.0
 40
0.0
 40
0.0
 40
0.0
 40
0.0575824048806909
 40
0.0575824048806909
 40
0.0969870129599124
 40
0.0969870129599124
 40
0.0969870129599124
 40
0.0969870129599124
 10
-0.000000000000015
 20
-164.2853571071358
 30
0.0
 10
-0.0000000000000155
 20
-164.390164914035
 30
0.0
 10
0.0058302025871325
 20
-164.6556464676625
 30
0.0
 10
-0.2659924112206134
 20
-164.9440616857536
 30
0.0
 10
-0.4387957212773723
 20
-165.0000032568493
 30
0.0
 10
-0.669872981077816
 20
-165.0000000000001
 30
0.0
  0
LINE
  5
ADC
330
A96
100
AcDbEntity
  8
0
100
AcDbLine
 10
-1.674298417748495
 20
-164.2853571071358
 30
0.0
 11
0.0
 21
-164.2853571071358
 31
0.0
  0
LINE
  5
ADD
330
A96
100
AcDbEntity
  8
0
100
AcDbLine
 10
-2.500000000000026
 20
-164.2853571071358
 30
0.0
 11
-1.674298417748495
 21
-164.2853571071358
 31
0.0
  0
SPLINE
  5
ADE
330
A96
100
AcDbEntity
  8
0
100
AcDbSpline
210
0.0
220
0.0
230
1.0
 70
     8
 71
     3
 72
    12
 73
     8
 74
     0
 42
0.000000001
 43
0.0000000001
 40
0.0
 40
0.0
 40
0.0
 40
0.0
 40
0.048393931568139
 40
0.048393931568139
 40
0.0973081656887726
 40
0.0973081656887726
 40
0.1727322110454438
 40
0.1727322110454438
 40
0.1727322110454438
 40
0.1727322110454438
 10
-2.834936490538915
 20
-165.0000000000001
 30
0.0
 10
-2.754279937962309
 20
-165.0000048834335
 30
0.0
 10
-2.688885986773705
 20
-164.9722351163802
 30
0.0
 10
-2.588072378003984
 20
-164.865170431628
 30
0.0
 10
-2.554445198879442
 20
-164.7870554509272
 30
0.0
 10
-2.500111425961437
 20
-164.540358508144
 30
0.0
 10
-2.500000000000015
 20
-164.3730034822692
 30
0.0
 10
-2.500000000000015
 20
-164.2853571071358
 30
0.0
  0
LINE
  5
ADF
330
A96
100
AcDbEntity
  8
0
100
AcDbLine
 10
-5.000000000000034
 20
-25.00000000000007
 30
0.0
 11
-2.834936490538919
 21
-25.00000000000007
 31
0.0
  0
SPLINE
  5
AE0
330
A96
100
AcDbEntity
  8
0
100
AcDbSpline
210
0.0
220
0.0
230
1.0
 70
     8
 71
     3
 72
    12
 73
     8
 74
     0
 42
0.000000001
 43
0.0000000001
 40
0.0
 40
0.0
 40
0.0
 40
0.0
 40
0.04839393156936
 40
0.04839393156936
 40
0.0973081656897928
 40
0.0973081656897928
 40
0.1727322110457007
 40
0.1727322110457007
 40
0.1727322110457007
 40
0.1727322110457007
 10
-2.834936490538919
 20
-25.00000000000005
 30
0.0
 10
-2.75427993796028
 20
-24.99999511656678
 30
0.0
 10
-2.688885986770894
 20
-25.02776488362123
 30
0.0
 10
-2.588072378002031
 20
-25.13482956837596
 30
0.0
 10
-2.554445198878325
 20
-25.21294454907632
 30
0.0
 10
-2.500111425961513
 20
-25.45964149185853
 30
0.0
 10
-2.500000000000035
 20
-25.62699651773042
 30
0.0
 10
-2.500000000000035
 20
-25.7146428928643
 30
0.0
  0
LINE
  5
AE1
330
A96
100
AcDbEntity
  8
0
100
AcDbLine
 10
-2.500000000000036
 20
0.0
 30
0.0
 11
-5.000000000000034
 21
0.0
 31
0.0
  0
LINE
  5
AE2
330
A96
100
AcDbEntity
  8
0
100
AcDbLine
 10
-5.000000000000034
 20
-92.50000000000007
 30
0.0
 11
-2.500000000000028
 21
-92.50000000000007
 31
0.0
  0
SPLINE
  5
AE3
330
A96
100
AcDbEntity
  8
0
100
AcDbSpline
210
0.0
220
0.0
230
1.0
 70
     8
 71
     3
 72
    12
 73
     8
 74
     0
 42
0.000000001
 43
0.0000000001
 40
0.0
 40
0.0
 40
0.0
 40
0.0
 40
0.0373203676587967
 40
0.0373203676587967
 40
0.0541955352955324
 40
0.0541955352955324
 40
0.0700894530141588
 40
0.0700894530141588
 40
0.0700894530141588
 40
0.0700894530141588
 10
-2.500000000000032
 20
-74.28535710713582
 30
0.0
 10
-2.500000000000032
 20
-74.38412573967275
 30
0.0
 10
-2.498255977977759
 20
-74.59954484458187
 30
0.0
 10
-2.579336079331908
 20
-74.84299746645374
 30
0.0
 10
-2.615116159469667
 20
-74.90267980818555
 30
0.0
 10
-2.710479480039934
 20
-74.9805457969756
 30
0.0
 10
-2.767475119538231
 20
-75.00000408451763
 30
0.0
 10
-2.834936490538919
 20
-75.00000000000007
 30
0.0
  0
LINE
  5
AE4
330
A96
100
AcDbEntity
  8
0
100
AcDbLine
 10
-2.834936490538917
 20
-75.00000000000007
 30
0.0
 11
-5.000000000000034
 21
-75.00000000000007
 31
0.0
  0
ENDBLK
  5
A98
330
A96
100
AcDbEntity
  8
0
100
AcDbBlockEnd
  0
BLOCK
  5
AE6
330
AE5
100
AcDbEntity
  8
0
100
AcDbBlockBegin
  2
CBH180-Top
 70
     0
 10
0.0
 20
0.0
 30
0.0
  3
CBH180-Top
  1

  0
LINE
  5
AE8
330
AE5
100
AcDbEntity
  8
0
100
AcDbLine
 10
3.749999999999987
 20
-5.000000000000036
 30
0.0
 11
8.000000000000031
 21
-5.000000000000039
 31
0.0
  0
LINE
  5
AE9
330
AE5
100
AcDbEntity
  8
0
100
AcDbLine
 10
9.500000000000031
 20
-5.000000000000039
 30
0.0
 11
8.000000000000031
 21
-5.000000000000037
 31
0.0
  0
LINE
  5
AEA
330
AE5
100
AcDbEntity
  8
0
100
AcDbLine
 10
-3.750000000000015
 20
-89.75000000000001
 30
0.0
 11
-3.750000000000015
 21
-105.25
 31
0.0
  0
ARC
  5
AEB
330
AE5
100
AcDbEntity
  8
0
100
AcDbCircle
 10
1.249999999999985
 20
-69.74999999999996
 30
0.0
 40
2.5
100
AcDbArc
 50
270.0
 51
0.0
  0
ARC
  5
AEC
330
AE5
100
AcDbEntity
  8
0
100
AcDbCircle
 10
1.249999999999985
 20
-66.75000000000008
 30
0.0
 40
2.5
100
AcDbArc
 50
0.0
 51
90.00000000000003
  0
LINE
  5
AED
330
AE5
100
AcDbEntity
  8
0
100
AcDbLine
 10
3.749999999999984
 20
-66.75000000000003
 30
0.0
 11
3.749999999999984
 21
-69.75000000000003
 31
0.0
  0
LINE
  5
AEE
330
AE5
100
AcDbEntity
  8
0
100
AcDbLine
 10
3.749999999999984
 20
-30.50000000000001
 30
0.0
 11
3.749999999999984
 21
-32.0
 31
0.0
  0
LINE
  5
AEF
330
AE5
100
AcDbEntity
  8
0
100
AcDbLine
 10
3.749999999999984
 20
-30.50000000000001
 30
0.0
 11
3.749999999999987
 21
-5.000000000000039
 31
0.0
  0
ARC
  5
AF0
330
AE5
100
AcDbEntity
  8
0
100
AcDbCircle
 10
-3.750000000000015
 20
-107.75
 30
0.0
 40
2.5
100
AcDbArc
 50
0.0
 51
90.00000000000005
  0
ARC
  5
AF1
330
AE5
100
AcDbEntity
  8
0
100
AcDbCircle
 10
-3.750000000000015
 20
-87.25000000000001
 30
0.0
 40
2.5
100
AcDbArc
 50
270.0
 51
0.0
  0
ARC
  5
AF2
330
AE5
100
AcDbEntity
  8
0
100
AcDbCircle
 10
1.249999999999985
 20
-32.0
 30
0.0
 40
2.5
100
AcDbArc
 50
270.0
 51
0.0
  0
ARC
  5
AF3
330
AE5
100
AcDbEntity
  8
0
100
AcDbCircle
 10
9.500000000000035
 20
-2.50000000000004
 30
0.0
 40
2.5
100
AcDbArc
 50
269.9999999999999
 51
0.0
  0
LINE
  5
AF4
330
AE5
100
AcDbEntity
  8
0
100
AcDbLine
 10
26.00000000000007
 20
-2.500000000000054
 30
0.0
 11
30.00000000000005
 21
-2.500000000000057
 31
0.0
  0
LINE
  5
AF5
330
AE5
100
AcDbEntity
  8
0
100
AcDbLine
 10
30.00000000000005
 20
-2.500000000000057
 30
0.0
 11
30.00000000000005
 21
0.0
 31
0.0
  0
LINE
  5
AF6
330
AE5
100
AcDbEntity
  8
0
100
AcDbLine
 10
-1.250000000000014
 20
-109.5
 30
0.0
 11
-1.250000000000014
 21
-113.5
 31
0.0
  0
LINE
  5
AF7
330
AE5
100
AcDbEntity
  8
0
100
AcDbLine
 10
-1.250000000000014
 20
-113.5
 30
0.0
 11
1.249999999999985
 21
-113.5
 31
0.0
  0
LINE
  5
AF8
330
AE5
100
AcDbEntity
  8
0
100
AcDbLine
 10
1.249999999999985
 20
-113.5
 30
0.0
 11
1.249999999999985
 21
-109.5
 31
0.0
  0
LINE
  5
AF9
330
AE5
100
AcDbEntity
  8
0
100
AcDbLine
 10
1.249999999999985
 20
-109.5
 30
0.0
 11
-1.250000000000015
 21
-109.5
 31
0.0
  0
LINE
  5
AFA
330
AE5
100
AcDbEntity
  8
0
100
AcDbLine
 10
30.00000000000005
 20
0.0
 30
0.0
 11
26.00000000000007
 21
0.0
 31
0.0
  0
LINE
  5
AFB
330
AE5
100
AcDbEntity
  8
0
100
AcDbLine
 10
26.00000000000007
 20
0.0
 30
0.0
 11
26.00000000000007
 21
-2.500000000000054
 31
0.0
  0
LINE
  5
AFC
330
AE5
100
AcDbEntity
  8
0
100
AcDbLine
 10
3.749999999999988
 20
-2.500000000000035
 30
0.0
 11
26.00000000000007
 21
-2.500000000000054
 31
0.0
  0
LINE
  5
AFD
330
AE5
100
AcDbEntity
  8
0
100
AcDbLine
 10
-9.999999999999975
 20
-2.500000000000021
 30
0.0
 11
-0.5801270189222042
 21
-2.500000000000029
 31
0.0
  0
LINE
  5
AFE
330
AE5
100
AcDbEntity
  8
0
100
AcDbLine
 10
-9.999999999999971
 20
-2.500000000000022
 30
0.0
 11
-29.99999999999998
 21
-2.500000000000003
 31
0.0
  0
LINE
  5
AFF
330
AE5
100
AcDbEntity
  8
0
100
AcDbLine
 10
-1.250000000000014
 20
-104.5698511713309
 30
0.0
 11
-1.250000000000014
 21
-109.5
 31
0.0
  0
LINE
  5
B00
330
AE5
100
AcDbEntity
  8
0
100
AcDbLine
 10
-1.250000000000014
 20
-102.7499999999999
 30
0.0
 11
-1.250000000000014
 21
-104.5698511713309
 31
0.0
  0
LINE
  5
B01
330
AE5
100
AcDbEntity
  8
0
100
AcDbLine
 10
-1.250000000000014
 20
-100.4999999999999
 30
0.0
 11
-1.250000000000014
 21
-102.7499999999999
 31
0.0
  0
LINE
  5
B02
330
AE5
100
AcDbEntity
  8
0
100
AcDbLine
 10
-1.250000000000014
 20
-97.49999999999998
 30
0.0
 11
-1.250000000000014
 21
-100.4999999999999
 31
0.0
  0
LINE
  5
B03
330
AE5
100
AcDbEntity
  8
0
100
AcDbLine
 10
-1.250000000000014
 20
-92.24999999999996
 30
0.0
 11
-1.250000000000014
 21
-97.49999999999998
 31
0.0
  0
LINE
  5
B04
330
AE5
100
AcDbEntity
  8
0
100
AcDbLine
 10
-1.250000000000014
 20
-5.000000000000035
 30
0.0
 11
-1.250000000000014
 21
-92.24999999999996
 31
0.0
  0
LINE
  5
B05
330
AE5
100
AcDbEntity
  8
0
100
AcDbLine
 10
1.249999999999985
 20
-92.24999999999996
 30
0.0
 11
1.249999999999985
 21
-5.000000000000035
 31
0.0
  0
LINE
  5
B06
330
AE5
100
AcDbEntity
  8
0
100
AcDbLine
 10
1.249999999999985
 20
-97.49999999999998
 30
0.0
 11
1.249999999999985
 21
-92.24999999999996
 31
0.0
  0
LINE
  5
B07
330
AE5
100
AcDbEntity
  8
0
100
AcDbLine
 10
1.249999999999985
 20
-100.4999999999999
 30
0.0
 11
1.249999999999985
 21
-97.49999999999998
 31
0.0
  0
LINE
  5
B08
330
AE5
100
AcDbEntity
  8
0
100
AcDbLine
 10
1.249999999999985
 20
-102.7499999999999
 30
0.0
 11
1.249999999999985
 21
-100.4999999999999
 31
0.0
  0
LINE
  5
B09
330
AE5
100
AcDbEntity
  8
0
100
AcDbLine
 10
1.249999999999985
 20
-104.5698511713309
 30
0.0
 11
1.249999999999985
 21
-102.7499999999999
 31
0.0
  0
LINE
  5
B0A
330
AE5
100
AcDbEntity
  8
0
100
AcDbLine
 10
1.249999999999985
 20
-109.5
 30
0.0
 11
1.249999999999985
 21
-104.5698511713309
 31
0.0
  0
LINE
  5
B0B
330
AE5
100
AcDbEntity
  8
0
100
AcDbLine
 10
-29.99999999999999
 20
0.0
 30
0.0
 11
-9.999999999999978
 21
0.0
 31
0.0
  0
LINE
  5
B0C
330
AE5
100
AcDbEntity
  8
0
100
AcDbLine
 10
2.000000000000034
 20
0.0
 30
0.0
 11
-9.999999999999975
 21
0.0
 31
0.0
  0
LINE
  5
B0D
330
AE5
100
AcDbEntity
  8
0
100
AcDbLine
 10
3.749999999999982
 20
0.0
 30
0.0
 11
2.000000000000033
 21
0.0
 31
0.0
  0
LINE
  5
B0E
330
AE5
100
AcDbEntity
  8
0
100
AcDbLine
 10
26.00000000000007
 20
0.0
 30
0.0
 11
3.749999999999991
 21
0.0
 31
0.0
  0
LINE
  5
B0F
330
AE5
100
AcDbEntity
  8
0
100
AcDbLine
 10
-1.250000000000014
 20
-104.5698511713309
 30
0.0
 11
1.249999999999984
 21
-104.5698511713309
 31
0.0
  0
LINE
  5
B10
330
AE5
100
AcDbEntity
  8
0
100
AcDbLine
 10
-1.250000000000014
 20
-102.7499999999999
 30
0.0
 11
1.249999999999985
 21
-102.7499999999999
 31
0.0
  0
LINE
  5
B11
330
AE5
100
AcDbEntity
  8
0
100
AcDbLine
 10
-1.250000000000014
 20
-92.24999999999996
 30
0.0
 11
1.249999999999985
 21
-92.24999999999996
 31
0.0
  0
LINE
  5
B12
330
AE5
100
AcDbEntity
  8
0
100
AcDbLine
 10
-29.99999999999999
 20
0.0
 30
0.0
 11
-30.0
 21
-2.500000000000003
 31
0.0
  0
ARC
  5
B13
330
AE5
100
AcDbEntity
  8
0
100
AcDbCircle
 10
3.749999999999984
 20
-5.000000000000036
 30
0.0
 40
5.0
100
AcDbArc
 50
89.99999999999992
 51
180.0
  0
ARC
  5
B14
330
AE5
100
AcDbEntity
  8
0
100
AcDbCircle
 10
3.749999999999984
 20
-5.000000000000036
 30
0.0
 40
2.5
100
AcDbArc
 50
89.99999999999991
 51
180.0
  0
ARC
  5
B15
330
AE5
100
AcDbEntity
  8
0
100
AcDbCircle
 10
-3.750000000000015
 20
-5.000000000000007
 30
0.0
 40
2.5
100
AcDbArc
 50
0.0
 51
89.99999999999976
  0
ENDBLK
  5
AE7
330
AE5
100
AcDbEntity
  8
0
100
AcDbBlockEnd
  0
BLOCK
  5
B17
330
B16
100
AcDbEntity
  8
0
100
AcDbBlockBegin
  2
CBH180-Bottom
 70
     0
 10
0.0
 20
0.0
 30
0.0
  3
CBH180-Bottom
  1

  0
LINE
  5
B19
330
B16
100
AcDbEntity
  8
0
100
AcDbLine
 10
3.749999999999984
 20
5.000000000000033
 30
0.0
 11
3.749999999999984
 21
30.50000000000001
 31
0.0
  0
LINE
  5
B1A
330
B16
100
AcDbEntity
  8
0
100
AcDbLine
 10
8.000000000000028
 20
5.000000000000037
 30
0.0
 11
3.749999999999984
 21
5.000000000000033
 31
0.0
  0
LINE
  5
B1B
330
B16
100
AcDbEntity
  8
0
100
AcDbLine
 10
8.000000000000028
 20
5.000000000000037
 30
0.0
 11
9.500000000000031
 21
5.000000000000039
 31
0.0
  0
LINE
  5
B1C
330
B16
100
AcDbEntity
  8
0
100
AcDbLine
 10
-3.750000000000015
 20
105.25
 30
0.0
 11
-3.750000000000015
 21
89.75000000000001
 31
0.0
  0
ARC
  5
B1D
330
B16
100
AcDbEntity
  8
0
100
AcDbCircle
 10
1.249999999999985
 20
69.75000000000005
 30
0.0
 40
2.499999999999991
100
AcDbArc
 50
0.0
 51
90.00000000000003
  0
ARC
  5
B1E
330
B16
100
AcDbEntity
  8
0
100
AcDbCircle
 10
1.249999999999985
 20
66.75000000000003
 30
0.0
 40
2.499999999999946
100
AcDbArc
 50
270.0
 51
0.0
  0
LINE
  5
B1F
330
B16
100
AcDbEntity
  8
0
100
AcDbLine
 10
3.749999999999984
 20
69.75000000000003
 30
0.0
 11
3.749999999999984
 21
66.75000000000003
 31
0.0
  0
LINE
  5
B20
330
B16
100
AcDbEntity
  8
0
100
AcDbLine
 10
3.749999999999984
 20
32.0
 30
0.0
 11
3.749999999999984
 21
30.50000000000001
 31
0.0
  0
ARC
  5
B21
330
B16
100
AcDbEntity
  8
0
100
AcDbCircle
 10
-3.750000000000015
 20
87.25000000000001
 30
0.0
 40
2.5
100
AcDbArc
 50
0.0
 51
90.00000000000003
  0
ARC
  5
B22
330
B16
100
AcDbEntity
  8
0
100
AcDbCircle
 10
-3.750000000000015
 20
107.75
 30
0.0
 40
2.5
100
AcDbArc
 50
270.0
 51
0.0
  0
ARC
  5
B23
330
B16
100
AcDbEntity
  8
0
100
AcDbCircle
 10
1.249999999999985
 20
32.0
 30
0.0
 40
2.5
100
AcDbArc
 50
0.0
 51
90.00000000000003
  0
ARC
  5
B24
330
B16
100
AcDbEntity
  8
0
100
AcDbCircle
 10
9.500000000000035
 20
2.50000000000004
 30
0.0
 40
2.5
100
AcDbArc
 50
0.0
 51
90.0000000000001
  0
LINE
  5
B25
330
B16
100
AcDbEntity
  8
0
100
AcDbLine
 10
-30.0
 20
2.499999999999842
 30
0.0
 11
-29.99999999999999
 21
0.0
 31
0.0
  0
LINE
  5
B26
330
B16
100
AcDbEntity
  8
0
100
AcDbLine
 10
-29.99999999999999
 20
0.0
 30
0.0
 11
-25.99999999999998
 21
0.0
 31
0.0
  0
LINE
  5
B27
330
B16
100
AcDbEntity
  8
0
100
AcDbLine
 10
-25.99999999999998
 20
0.0
 30
0.0
 11
-26.0
 21
2.49999999999987
 31
0.0
  0
LINE
  5
B28
330
B16
100
AcDbEntity
  8
0
100
AcDbLine
 10
-26.0
 20
2.49999999999987
 30
0.0
 11
-30.0
 21
2.499999999999842
 31
0.0
  0
LINE
  5
B29
330
B16
100
AcDbEntity
  8
0
100
AcDbLine
 10
1.249999999999985
 20
109.5
 30
0.0
 11
1.249999999999985
 21
113.5
 31
0.0
  0
LINE
  5
B2A
330
B16
100
AcDbEntity
  8
0
100
AcDbLine
 10
1.249999999999985
 20
113.5
 30
0.0
 11
-1.250000000000015
 21
113.5
 31
0.0
  0
LINE
  5
B2B
330
B16
100
AcDbEntity
  8
0
100
AcDbLine
 10
-1.250000000000014
 20
113.5
 30
0.0
 11
-1.250000000000014
 21
109.5
 31
0.0
  0
LINE
  5
B2C
330
B16
100
AcDbEntity
  8
0
100
AcDbLine
 10
-1.250000000000014
 20
109.5
 30
0.0
 11
1.249999999999984
 21
109.5
 31
0.0
  0
LINE
  5
B2D
330
B16
100
AcDbEntity
  8
0
100
AcDbLine
 10
29.99999999999998
 20
0.0
 30
0.0
 11
9.999999999999982
 21
0.0
 31
0.0
  0
LINE
  5
B2E
330
B16
100
AcDbEntity
  8
0
100
AcDbLine
 10
-2.000000000000011
 20
0.0
 30
0.0
 11
9.99999999999998
 21
0.0
 31
0.0
  0
LINE
  5
B2F
330
B16
100
AcDbEntity
  8
0
100
AcDbLine
 10
-3.749999999999973
 20
0.0
 30
0.0
 11
-2.00000000000001
 21
0.0
 31
0.0
  0
LINE
  5
B30
330
B16
100
AcDbEntity
  8
0
100
AcDbLine
 10
-25.99999999999998
 20
0.0
 30
0.0
 11
-3.749999999999982
 21
0.0
 31
0.0
  0
LINE
  5
B31
330
B16
100
AcDbEntity
  8
0
100
AcDbLine
 10
-1.250000000000014
 20
109.5
 30
0.0
 11
-1.250000000000014
 21
5.000000000000017
 31
0.0
  0
LINE
  5
B32
330
B16
100
AcDbEntity
  8
0
100
AcDbLine
 10
1.249999999999985
 20
5.000000000000017
 30
0.0
 11
1.249999999999985
 21
109.5
 31
0.0
  0
LINE
  5
B33
330
B16
100
AcDbEntity
  8
0
100
AcDbLine
 10
9.99999999999996
 20
2.500000000000122
 30
0.0
 11
29.99999999999996
 21
2.500000000000261
 31
0.0
  0
LINE
  5
B34
330
B16
100
AcDbEntity
  8
0
100
AcDbLine
 10
9.99999999999996
 20
2.500000000000122
 30
0.0
 11
0.5801270189222075
 21
2.500000000000056
 31
0.0
  0
LINE
  5
B35
330
B16
100
AcDbEntity
  8
0
100
AcDbLine
 10
-3.750000000000006
 20
2.500000000000026
 30
0.0
 11
-26.0
 21
2.49999999999987
 31
0.0
  0
LINE
  5
B36
330
B16
100
AcDbEntity
  8
0
100
AcDbLine
 10
29.99999999999996
 20
2.500000000000261
 30
0.0
 11
29.99999999999998
 21
0.0
 31
0.0
  0
ARC
  5
B37
330
B16
100
AcDbEntity
  8
0
100
AcDbCircle
 10
3.749999999999984
 20
5.000000000000028
 30
0.0
 40
2.5
100
AcDbArc
 50
180.0
 51
269.9999999999999
  0
ARC
  5
B38
330
B16
100
AcDbEntity
  8
0
100
AcDbCircle
 10
-3.750000000000015
 20
5.000000000000007
 30
0.0
 40
5.0
100
AcDbArc
 50
270.0000000000003
 51
0.0
  0
ARC
  5
B39
330
B16
100
AcDbEntity
  8
0
100
AcDbCircle
 10
-3.750000000000015
 20
5.000000000000007
 30
0.0
 40
2.499999999999985
100
AcDbArc
 50
270.0000000000002
 51
0.0
  0
ENDBLK
  5
B18
330
B16
100
AcDbEntity
  8
0
100
AcDbBlockEnd
  0
BLOCK
  5
B3B
330
B3A
100
AcDbEntity
  8
0
100
AcDbBlockBegin
  2
CBH180-ISO
 70
     0
 10
0.0
 20
0.0
 30
0.0
  3
CBH180-ISO
  1

  0
ELLIPSE
  5
B3D
330
B3A
100
AcDbEntity
  8
0
100
AcDbEllipse
 10
37.47313521666145
 20
83.07649241953013
 30
0.0
 11
1.25
 21
-2.165063509461095
 31
0.0
210
0.0
220
0.0
230
0.9999999999999998
 40
0.5773502691896262
 41
0.0
 42
0.7853981633974519
  0
ELLIPSE
  5
B3E
330
B3A
100
AcDbEntity
  8
0
100
AcDbEllipse
 10
41.00866912259419
 20
83.07649241953019
 30
0.0
 11
-1.249999999999999
 21
-2.165063509461096
 31
0.0
210
0.0
220
0.0
230
1.0
 40
0.5773502691896259
 41
5.49778714378214
 42
6.283185307179591
  0
ELLIPSE
  5
B3F
330
B3A
100
AcDbEntity
  8
0
100
AcDbEllipse
 10
41.00866912259433
 20
85.52598216231322
 30
0.0
 11
-1.249999999999873
 21
-2.165063509461169
 31
0.0
210
0.0
220
0.0
230
1.0
 40
0.5773502691896259
 41
3.926990816987
 42
5.497787143781901
  0
ELLIPSE
  5
B40
330
B3A
100
AcDbEntity
  8
0
100
AcDbEllipse
 10
39.24090216962787
 20
86.54660288847294
 30
0.0
 11
2.499999999999999
 21
-0.0000000000001489
 31
0.0
210
0.0
220
0.0
230
1.0
 40
0.577350269189626
 41
0.7853981633976952
 42
2.356194490192594
  0
ELLIPSE
  5
B41
330
B3A
100
AcDbEntity
  8
0
100
AcDbEllipse
 10
37.47313521666159
 20
85.52598216231334
 30
0.0
 11
1.249999999999868
 21
-2.165063509461172
 31
0.0
210
0.0
220
0.0
230
1.0
 40
0.5773502691896263
 41
0.7853981633976863
 42
2.356194490192585
  0
LINE
  5
B42
330
B3A
100
AcDbEntity
  8
0
100
AcDbLine
 10
39.24090216962787
 20
84.50536143615364
 30
0.0
 11
42.24610598967072
 21
82.77030620168222
 31
0.0
  0
ELLIPSE
  5
B43
330
B3A
100
AcDbEntity
  8
0
100
AcDbEllipse
 10
44.0138729426371
 20
83.79092692784187
 30
0.0
 11
-1.24999999999985
 21
-2.165063509461132
 31
0.0
210
0.0
220
0.0
230
1.0
 40
0.5773502691896263
 41
3.926990816987004
 42
5.497787143781892
  0
LINE
  5
B44
330
B3A
100
AcDbEntity
  8
0
100
AcDbLine
 10
41.00866912259423
 20
87.5672236146326
 30
0.0
 11
44.0138729426371
 21
85.83216838016115
 31
0.0
  0
LINE
  5
B45
330
B3A
100
AcDbEntity
  8
0
100
AcDbLine
 10
39.24090216962787
 20
82.0558716933705
 30
0.0
 11
21.20967924937093
 21
71.64554028654197
 31
0.0
  0
ELLIPSE
  5
B46
330
B3A
100
AcDbEntity
  8
0
100
AcDbEllipse
 10
19.44191229640456
 20
72.66616101270162
 30
0.0
 11
1.249999999999995
 21
-2.165063509461089
 31
0.0
210
0.0
220
0.0
230
0.9999999999999998
 40
0.5773502691896259
 41
0.0000000000000054
 42
0.785398163397451
  0
LINE
  5
B47
330
B3A
100
AcDbEntity
  8
0
100
AcDbLine
 10
42.24610598967072
 20
80.32081645889906
 30
0.0
 11
39.24090216962787
 21
82.0558716933705
 31
0.0
  0
ELLIPSE
  5
B48
330
B3A
100
AcDbEntity
  8
0
100
AcDbEllipse
 10
42.24610598967072
 20
81.54556133029062
 30
0.0
 11
0.7499999999999214
 21
-1.299038105676703
 31
0.0
210
0.0
220
0.0
230
0.9999999999999998
 40
0.5773502691896252
 41
5.497787143782377
 42
8.639379797372171
  0
ELLIPSE
  5
B49
330
B3A
100
AcDbEntity
  8
0
100
AcDbEllipse
 10
44.0138729426371
 20
82.56618205645027
 30
0.0
 11
1.99999999999979
 21
-3.464101615137875
 31
0.0
210
0.0
220
0.0
230
1.0
 40
0.5773502691896251
 41
0.0
 42
2.356194490192587
  0
ELLIPSE
  5
B4A
330
B3A
100
AcDbEntity
  8
0
100
AcDbEllipse
 10
-29.7020089960605
 20
-3.880393449272609
 30
0.0
 11
2.624999999999999
 21
4.546633369868302
 31
0.0
210
0.0
220
0.0
230
1.0
 40
0.5773502691896258
 41
3.141592653589792
 42
6.283185307179586
  0
ELLIPSE
  5
B4B
330
B3A
100
AcDbEntity
  8
0
100
AcDbEllipse
 10
-27.93424204309414
 20
-4.901014175432258
 30
0.0
 11
3.875
 21
6.7116968793294
 31
0.0
210
0.0
220
0.0
230
0.9999999999999998
 40
0.5773502691896259
 41
0.0
 42
6.283185307179586
  0
ELLIPSE
  5
B4C
330
B3A
100
AcDbEntity
  8
0
100
AcDbEllipse
 10
19.44191229640456
 20
73.89090588409323
 30
0.0
 11
-1.999999999999999
 21
-3.464101615137756
 31
0.0
210
0.0
220
0.0
230
1.0
 40
0.5773502691896259
 41
3.926990816987238
 42
6.283185307179584
  0
LINE
  5
B4D
330
B3A
100
AcDbEntity
  8
0
100
AcDbLine
 10
19.44191229640456
 20
77.15689220780413
 30
0.0
 11
37.4731352166615
 21
87.5672236146326
 31
0.0
  0
ELLIPSE
  5
B4E
330
B3A
100
AcDbEntity
  8
0
100
AcDbEllipse
 10
-27.93424204309414
 20
-29.39591160326405
 30
0.0
 11
3.875
 21
6.7116968793294
 31
0.0
210
0.0
220
0.0
230
0.9999999999999998
 40
0.5773502691896259
 41
0.0
 42
6.283185307179586
  0
ELLIPSE
  5
B4F
330
B3A
100
AcDbEntity
  8
0
100
AcDbEllipse
 10
-27.93424204309414
 20
-78.38570645892762
 30
0.0
 11
3.875
 21
6.7116968793294
 31
0.0
210
0.0
220
0.0
230
0.9999999999999998
 40
0.5773502691896259
 41
0.0
 42
6.283185307179586
  0
LINE
  5
B50
330
B3A
100
AcDbEntity
  8
0
100
AcDbLine
 10
-10.07979581813382
 20
-61.95371276775713
 30
0.0
 11
-10.07979581813376
 21
48.27332565748591
 31
0.0
  0
ELLIPSE
  5
B51
330
B3A
100
AcDbEntity
  8
0
100
AcDbEllipse
 10
-7.251368693387627
 20
49.90631881934134
 30
0.0
 11
2.000000000000205
 21
3.464101615137635
 31
0.0
210
0.0
220
0.0
230
1.0
 40
0.5773502691896258
 41
0.0
 42
2.35619449019258
  0
ELLIPSE
  5
B52
330
B3A
100
AcDbEntity
  8
0
100
AcDbEllipse
 10
-7.251368693387627
 20
-60.32071960590167
 30
0.0
 11
-2.000000000000003
 21
-3.464101615137753
 31
0.0
210
0.0
220
0.0
230
1.0
 40
0.5773502691896258
 41
5.497787143782144
 42
6.283185307179591
  0
ELLIPSE
  5
B53
330
B3A
100
AcDbEntity
  8
0
100
AcDbEllipse
 10
-27.93424204309414
 20
19.59388325239951
 30
0.0
 11
3.875
 21
6.7116968793294
 31
0.0
210
0.0
220
0.0
230
0.9999999999999998
 40
0.5773502691896259
 41
0.0
 42
6.283185307179586
  0
ELLIPSE
  5
B54
330
B3A
100
AcDbEntity
  8
0
100
AcDbEllipse
 10
-27.93424204309414
 20
-53.89080903109581
 30
0.0
 11
3.875
 21
6.7116968793294
 31
0.0
210
0.0
220
0.0
230
0.9999999999999998
 40
0.5773502691896259
 41
0.0
 42
6.283185307179586
  0
ELLIPSE
  5
B55
330
B3A
100
AcDbEntity
  8
0
100
AcDbEllipse
 10
-29.7020089960605
 20
-28.3752908771044
 30
0.0
 11
2.624999999999999
 21
4.546633369868302
 31
0.0
210
0.0
220
0.0
230
1.0
 40
0.5773502691896258
 41
3.141592653589793
 42
6.283185307179586
  0
ELLIPSE
  5
B56
330
B3A
100
AcDbEntity
  8
0
100
AcDbEllipse
 10
-29.7020089960605
 20
-52.87018830493616
 30
0.0
 11
2.624999999999999
 21
4.546633369868302
 31
0.0
210
0.0
220
0.0
230
1.0
 40
0.5773502691896258
 41
3.141592653589793
 42
6.283185307179586
  0
ELLIPSE
  5
B57
330
B3A
100
AcDbEntity
  8
0
100
AcDbEllipse
 10
-29.7020089960605
 20
-77.36508573276793
 30
0.0
 11
2.624999999999999
 21
4.546633369868302
 31
0.0
210
0.0
220
0.0
230
1.0
 40
0.5773502691896258
 41
3.141592653589791
 42
6.283185307179586
  0
ELLIPSE
  5
B58
330
B3A
100
AcDbEntity
  8
0
100
AcDbEllipse
 10
-29.7020089960605
 20
20.61450397855917
 30
0.0
 11
2.624999999999999
 21
4.546633369868302
 31
0.0
210
0.0
220
0.0
230
1.0
 40
0.5773502691896258
 41
3.141592653589793
 42
6.283185307179586
  0
ELLIPSE
  5
B59
330
B3A
100
AcDbEntity
  8
0
100
AcDbEllipse
 10
-8.312028865167393
 20
49.29394638364557
 30
0.0
 11
-2.499999999999999
 21
0.0000000000001497
 31
0.0
210
0.0
220
0.0
230
1.0
 40
0.5773502691896259
 41
0.7853981633976908
 42
2.356194490192587
  0
ELLIPSE
  5
B5A
330
B3A
100
AcDbEntity
  8
0
100
AcDbEllipse
 10
-8.312028865167464
 20
-60.9330920415975
 30
0.0
 11
2.499999999999991
 21
0.0000000000001335
 31
0.0
210
0.0
220
0.0
230
1.0
 40
0.5773502691896216
 41
3.926990816987004
 42
5.497787143781902
  0
LINE
  5
B5B
330
B3A
100
AcDbEntity
  8
0
100
AcDbLine
 10
-6.544261912201099
 20
-61.95371276775715
 30
0.0
 11
-6.544261912201028
 21
48.27332565748593
 31
0.0
  0
ELLIPSE
  5
B5C
330
B3A
100
AcDbEntity
  8
0
100
AcDbEllipse
 10
-6.190708521607799
 20
-59.70834717020588
 30
0.0
 11
2.499999999999946
 21
-0.0000000000000226
 31
0.0
210
0.0
220
0.0
230
1.0
 40
0.5773502691896237
 41
5.497787143782192
 42
6.283185307179645
  0
ELLIPSE
  5
B5D
330
B3A
100
AcDbEntity
  8
0
100
AcDbEllipse
 10
-5.483601740421262
 20
-61.34134033206134
 30
0.0
 11
-0.7500000000000781
 21
-1.299038105676613
 31
0.0
210
0.0
220
0.0
230
1.0
 40
0.5773502691896259
 41
5.497787143782393
 42
8.639379797372178
  0
ELLIPSE
  5
B5E
330
B3A
100
AcDbEntity
  8
0
100
AcDbEllipse
 10
-6.190708521607835
 20
50.51869125503713
 30
0.0
 11
2.5
 21
-0.0000000000000061
 31
0.0
210
0.0
220
0.0
230
1.0
 40
0.5773502691896237
 41
5.497787143782143
 42
6.283185307179585
  0
LINE
  5
B5F
330
B3A
100
AcDbEntity
  8
0
100
AcDbLine
 10
-4.422941568641469
 20
49.49807052887746
 30
0.0
 11
-4.422941568641434
 21
-60.72896789636555
 31
0.0
  0
ELLIPSE
  5
B60
330
B3A
100
AcDbEntity
  8
0
100
AcDbEllipse
 10
-5.483601740421262
 20
48.88569809318167
 30
0.0
 11
0.7500000000000778
 21
1.299038105676613
 31
0.0
210
0.0
220
0.0
230
0.9999999999999998
 40
0.577350269189626
 41
5.4977871437824
 42
8.639379797372164
  0
ELLIPSE
  5
B61
330
B3A
100
AcDbEntity
  8
0
100
AcDbEllipse
 10
19.44191229640456
 20
75.11565075548482
 30
0.0
 11
-1.250000000000129
 21
2.165063509461022
 31
0.0
210
0.0
220
0.0
230
1.0
 40
0.5773502691896259
 41
3.926990816986998
 42
5.497787143781896
  0
ELLIPSE
  5
B62
330
B3A
100
AcDbEntity
  8
0
100
AcDbEllipse
 10
21.20967924937093
 20
72.87028515793356
 30
0.0
 11
-0.7500000000000002
 21
-1.299038105676658
 31
0.0
210
0.0
220
0.0
230
1.0
 40
0.5773502691896258
 41
3.92699081698724
 42
7.068583470577034
  0
ELLIPSE
  5
B63
330
B3A
100
AcDbEntity
  8
0
100
AcDbEllipse
 10
44.01387294263709
 20
81.34143718505871
 30
0.0
 11
-1.249999999999997
 21
-2.165063509461098
 31
0.0
210
0.0
220
0.0
230
1.0
 40
0.577350269189627
 41
5.497787143782129
 42
6.283185307179583
  0
LINE
  5
B64
330
B3A
100
AcDbEntity
  8
0
100
AcDbLine
 10
21.20967924937093
 20
74.09503002932516
 30
0.0
 11
39.24090216962787
 21
84.50536143615364
 31
0.0
  0
SPLINE
  5
B65
330
B3A
100
AcDbEntity
  8
0
100
AcDbSpline
210
0.0
220
0.0
230
1.0
 70
     8
 71
     3
 72
    28
 73
    24
 74
     0
 42
0.000000001
 43
0.0000000001
 40
3.202115928020199
 40
3.202115928020199
 40
3.202115928020199
 40
3.202115928020199
 40
3.293458456403868
 40
3.293458456403868
 40
3.435454010707049
 40
3.435454010707049
 40
3.577818157958911
 40
3.577818157958911
 40
3.725723663290748
 40
3.725723663290748
 40
3.880249013817372
 40
3.880249013817372
 40
4.038716437692105
 40
4.038716437692105
 40
4.196072480005863
 40
4.196072480005863
 40
4.347721259668197
 40
4.347721259668197
 40
4.492474312353927
 40
4.492474312353927
 40
4.633724411786392
 40
4.633724411786392
 40
4.651865705955146
 40
4.651865705955146
 40
4.651865705955146
 40
4.651865705955146
 10
38.72154348521362
 20
80.91050992348915
 30
0.0
 10
38.72317460167064
 20
80.911344037937
 30
0.0
 10
38.72843055586819
 20
80.91393689965888
 30
0.0
 10
38.75028024276607
 20
80.92320305122116
 30
0.0
 10
38.77155241152294
 20
80.93130726683687
 30
0.0
 10
38.8269552124109
 20
80.94843185341014
 30
0.0
 10
38.86110707265956
 20
80.9574664139926
 30
0.0
 10
38.94016560725501
 20
80.97408516233889
 30
0.0
 10
38.98543401704158
 20
80.98160499230013
 30
0.0
 10
39.08390887574039
 20
80.99320499025544
 30
0.0
 10
39.1373775508785
 20
80.99711825826894
 30
0.0
 10
39.24716673603668
 20
81.00008323192978
 30
0.0
 10
39.30352391723134
 20
80.9990075246649
 30
0.0
 10
39.41216924951844
 20
80.99197007103072
 30
0.0
 10
39.46448141047072
 20
80.98603930659043
 30
0.0
 10
39.55863884935945
 20
80.97104796252612
 30
0.0
 10
39.60079102867462
 20
80.9621035868168
 30
0.0
 10
39.6709020318395
 20
80.94399147701995
 30
0.0
 10
39.69941105245696
 20
80.93484554472897
 30
0.0
 10
39.74085708281286
 20
80.91965992457032
 30
0.0
 10
39.75413700746462
 20
80.91354033834694
 30
0.0
 10
39.75947031029845
 20
80.91091113118668
 30
0.0
 10
39.75993690238467
 20
80.91067558471875
 30
0.0
 10
39.76026085404215
 20
80.91050992348911
 30
0.0
  0
LINE
  5
B66
330
B3A
100
AcDbEntity
  8
0
100
AcDbLine
 10
20.69191229640456
 20
70.50109750324054
 30
0.0
 11
38.72313521666145
 21
80.91142891006903
 31
0.0
  0
SPLINE
  5
B67
330
B3A
100
AcDbEntity
  8
0
100
AcDbSpline
210
0.0
220
0.0
230
1.0
 70
     8
 71
     3
 72
    30
 73
    26
 74
     0
 42
0.000000001
 43
0.0000000001
 40
2.356194490192344
 40
2.356194490192344
 40
2.356194490192344
 40
2.356194490192344
 40
2.670353755551324
 40
2.670353755551324
 40
2.97164101069275
 40
2.97164101069275
 40
3.216656691770962
 40
3.216656691770962
 40
3.470260289124841
 40
3.470260289124841
 40
3.736635563277971
 40
3.736635563277971
 40
4.011304785583482
 40
4.011304785583482
 40
4.287389518885
 40
4.287389518885
 40
4.557522071061921
 40
4.557522071061921
 40
4.815388296837168
 40
4.815388296837168
 40
5.061261598013408
 40
5.061261598013408
 40
5.320079977316968
 40
5.320079977316968
 40
5.497787143782137
 40
5.497787143782137
 40
5.497787143782137
 40
5.497787143782137
 10
-32.32700899606051
 20
-8.427026819140905
 30
0.0
 10
-32.34009896545046
 20
-8.419469321789954
 30
0.0
 10
-32.36705948900327
 20
-8.410911515527743
 30
0.0
 10
-32.49743230019149
 20
-8.190727855276129
 30
0.0
 10
-32.58431212136848
 20
-7.982898480550559
 30
0.0
 10
-32.67717865869663
 20
-7.411639469641517
 30
0.0
 10
-32.69482334990842
 20
-7.088007884136171
 30
0.0
 10
-32.64749193467333
 20
-6.333955967757347
 30
0.0
 10
-32.57996130509312
 20
-5.900767144482266
 30
0.0
 10
-32.34369397377089
 20
-4.964391788723716
 30
0.0
 10
-32.17027857838913
 20
-4.458929518035112
 30
0.0
 10
-31.72326517692007
 20
-3.438283464220788
 30
0.0
 10
-31.44682792457671
 20
-2.923370079061449
 30
0.0
 10
-30.8222545744119
 20
-1.953980295471247
 30
0.0
 10
-30.47377068679996
 20
-1.499961291042666
 30
0.0
 10
-29.75752612472963
 20
-0.7121298542704225
 30
0.0
 10
-29.39030741644613
 20
-0.3762104269533495
 30
0.0
 10
-28.70091784458826
 20
0.1460839722487428
 30
0.0
 10
-28.37763450874751
 20
0.3379998542797402
 30
0.0
 10
-27.83051501251618
 20
0.5885775897855439
 30
0.0
 10
-27.60399976175566
 20
0.6524105365092936
 30
0.0
 10
-27.26771566419341
 20
0.7053168728285009
 30
0.0
 10
-27.16867422675439
 20
0.6926412214189526
 30
0.0
 10
-27.0924901508094
 20
0.6754442289263097
 30
0.0
 10
-27.08441346132989
 20
0.670514890612175
 30
0.0
 10
-27.0770089960605
 20
0.666239920595686
 30
0.0
  0
SPLINE
  5
B68
330
B3A
100
AcDbEntity
  8
0
100
AcDbSpline
210
0.0
220
0.0
230
1.0
 70
     8
 71
     3
 72
    30
 73
    26
 74
     0
 42
0.000000001
 43
0.0000000001
 40
2.356194490192344
 40
2.356194490192344
 40
2.356194490192344
 40
2.356194490192344
 40
2.670353755551324
 40
2.670353755551324
 40
2.97164101069275
 40
2.97164101069275
 40
3.216656691770962
 40
3.216656691770962
 40
3.470260289124841
 40
3.470260289124841
 40
3.736635563277971
 40
3.736635563277971
 40
4.011304785583482
 40
4.011304785583482
 40
4.287389518885
 40
4.287389518885
 40
4.557522071061921
 40
4.557522071061921
 40
4.815388296837168
 40
4.815388296837168
 40
5.061261598013408
 40
5.061261598013408
 40
5.320079977316968
 40
5.320079977316968
 40
5.497787143782137
 40
5.497787143782137
 40
5.497787143782137
 40
5.497787143782137
 10
-32.32700899606051
 20
-32.92192424697269
 30
0.0
 10
-32.34009896545046
 20
-32.91436674962172
 30
0.0
 10
-32.36705948900327
 20
-32.90580894335953
 30
0.0
 10
-32.49743230019149
 20
-32.68562528310792
 30
0.0
 10
-32.58431212136848
 20
-32.47779590838231
 30
0.0
 10
-32.67717865869663
 20
-31.90653689747329
 30
0.0
 10
-32.69482334990842
 20
-31.58290531196794
 30
0.0
 10
-32.64749193467333
 20
-30.82885339558912
 30
0.0
 10
-32.57996130509312
 20
-30.39566457231405
 30
0.0
 10
-32.34369397377089
 20
-29.4592892165555
 30
0.0
 10
-32.17027857838913
 20
-28.95382694586686
 30
0.0
 10
-31.72326517692007
 20
-27.93318089205256
 30
0.0
 10
-31.44682792457671
 20
-27.41826750689322
 30
0.0
 10
-30.8222545744119
 20
-26.448877723303
 30
0.0
 10
-30.47377068679996
 20
-25.99485871887442
 30
0.0
 10
-29.75752612472963
 20
-25.20702728210221
 30
0.0
 10
-29.39030741644613
 20
-24.8711078547851
 30
0.0
 10
-28.70091784458826
 20
-24.34881345558303
 30
0.0
 10
-28.37763450874751
 20
-24.15689757355203
 30
0.0
 10
-27.83051501251618
 20
-23.90631983804621
 30
0.0
 10
-27.60399976175566
 20
-23.84248689132246
 30
0.0
 10
-27.26771566419341
 20
-23.78958055500329
 30
0.0
 10
-27.16867422675439
 20
-23.80225620641283
 30
0.0
 10
-27.0924901508094
 20
-23.81945319890546
 30
0.0
 10
-27.08441346132989
 20
-23.82438253721961
 30
0.0
 10
-27.0770089960605
 20
-23.82865750723608
 30
0.0
  0
SPLINE
  5
B69
330
B3A
100
AcDbEntity
  8
0
100
AcDbSpline
210
0.0
220
0.0
230
1.0
 70
     8
 71
     3
 72
    30
 73
    26
 74
     0
 42
0.000000001
 43
0.0000000001
 40
2.356194490192344
 40
2.356194490192344
 40
2.356194490192344
 40
2.356194490192344
 40
2.670353755551324
 40
2.670353755551324
 40
2.97164101069275
 40
2.97164101069275
 40
3.216656691770962
 40
3.216656691770962
 40
3.470260289124841
 40
3.470260289124841
 40
3.736635563277971
 40
3.736635563277971
 40
4.011304785583482
 40
4.011304785583482
 40
4.287389518885
 40
4.287389518885
 40
4.557522071061921
 40
4.557522071061921
 40
4.815388296837168
 40
4.815388296837168
 40
5.061261598013408
 40
5.061261598013408
 40
5.320079977316968
 40
5.320079977316968
 40
5.497787143782137
 40
5.497787143782137
 40
5.497787143782137
 40
5.497787143782137
 10
-32.32700899606051
 20
-57.41682167480447
 30
0.0
 10
-32.34009896545046
 20
-57.40926417745349
 30
0.0
 10
-32.36705948900327
 20
-57.40070637119131
 30
0.0
 10
-32.49743230019149
 20
-57.1805227109397
 30
0.0
 10
-32.58431212136848
 20
-56.97269333621409
 30
0.0
 10
-32.67717865869663
 20
-56.40143432530506
 30
0.0
 10
-32.69482334990842
 20
-56.07780273979972
 30
0.0
 10
-32.64749193467333
 20
-55.32375082342091
 30
0.0
 10
-32.57996130509312
 20
-54.8905620001458
 30
0.0
 10
-32.34369397377089
 20
-53.95418664438729
 30
0.0
 10
-32.17027857838913
 20
-53.44872437369865
 30
0.0
 10
-31.72326517692007
 20
-52.42807831988435
 30
0.0
 10
-31.44682792457671
 20
-51.913164934725
 30
0.0
 10
-30.8222545744119
 20
-50.94377515113478
 30
0.0
 10
-30.47377068679996
 20
-50.4897561467062
 30
0.0
 10
-29.75752612472963
 20
-49.70192470993396
 30
0.0
 10
-29.39030741644613
 20
-49.36600528261688
 30
0.0
 10
-28.70091784458826
 20
-48.84371088341481
 30
0.0
 10
-28.37763450874751
 20
-48.65179500138381
 30
0.0
 10
-27.83051501251618
 20
-48.40121726587799
 30
0.0
 10
-27.60399976175566
 20
-48.33738431915424
 30
0.0
 10
-27.26771566419341
 20
-48.28447798283507
 30
0.0
 10
-27.16867422675439
 20
-48.29715363424462
 30
0.0
 10
-27.0924901508094
 20
-48.31435062673725
 30
0.0
 10
-27.08441346132989
 20
-48.31927996505136
 30
0.0
 10
-27.0770089960605
 20
-48.32355493506785
 30
0.0
  0
SPLINE
  5
B6A
330
B3A
100
AcDbEntity
  8
0
100
AcDbSpline
210
0.0
220
0.0
230
1.0
 70
     8
 71
     3
 72
    30
 73
    26
 74
     0
 42
0.000000001
 43
0.0000000001
 40
2.356194490192344
 40
2.356194490192344
 40
2.356194490192344
 40
2.356194490192344
 40
2.670353755551324
 40
2.670353755551324
 40
2.97164101069275
 40
2.97164101069275
 40
3.216656691770962
 40
3.216656691770962
 40
3.470260289124841
 40
3.470260289124841
 40
3.736635563277971
 40
3.736635563277971
 40
4.011304785583482
 40
4.011304785583482
 40
4.287389518885
 40
4.287389518885
 40
4.557522071061921
 40
4.557522071061921
 40
4.815388296837168
 40
4.815388296837168
 40
5.061261598013408
 40
5.061261598013408
 40
5.320079977316968
 40
5.320079977316968
 40
5.497787143782137
 40
5.497787143782137
 40
5.497787143782137
 40
5.497787143782137
 10
-32.32700899606051
 20
-81.91171910263623
 30
0.0
 10
-32.34009896545046
 20
-81.90416160528528
 30
0.0
 10
-32.36705948900327
 20
-81.89560379902307
 30
0.0
 10
-32.49743230019149
 20
-81.67542013877145
 30
0.0
 10
-32.58431212136848
 20
-81.4675907640459
 30
0.0
 10
-32.67717865869663
 20
-80.89633175313682
 30
0.0
 10
-32.69482334990842
 20
-80.57270016763153
 30
0.0
 10
-32.64749193467333
 20
-79.81864825125268
 30
0.0
 10
-32.57996130509312
 20
-79.38545942797759
 30
0.0
 10
-32.34369397377089
 20
-78.44908407221905
 30
0.0
 10
-32.17027857838913
 20
-77.94362180153044
 30
0.0
 10
-31.72326517692007
 20
-76.92297574771612
 30
0.0
 10
-31.44682792457671
 20
-76.40806236255677
 30
0.0
 10
-30.8222545744119
 20
-75.43867257896657
 30
0.0
 10
-30.47377068679996
 20
-74.98465357453799
 30
0.0
 10
-29.75752612472963
 20
-74.19682213776574
 30
0.0
 10
-29.39030741644613
 20
-73.86090271044867
 30
0.0
 10
-28.70091784458826
 20
-73.3386083112466
 30
0.0
 10
-28.37763450874751
 20
-73.14669242921556
 30
0.0
 10
-27.83051501251618
 20
-72.89611469370979
 30
0.0
 10
-27.60399976175566
 20
-72.83228174698604
 30
0.0
 10
-27.26771566419341
 20
-72.77937541066684
 30
0.0
 10
-27.16867422675439
 20
-72.79205106207641
 30
0.0
 10
-27.0924901508094
 20
-72.80924805456898
 30
0.0
 10
-27.08441346132989
 20
-72.81417739288318
 30
0.0
 10
-27.0770089960605
 20
-72.81845236289965
 30
0.0
  0
SPLINE
  5
B6B
330
B3A
100
AcDbEntity
  8
0
100
AcDbSpline
210
0.0
220
0.0
230
1.0
 70
     8
 71
     3
 72
    30
 73
    26
 74
     0
 42
0.000000001
 43
0.0000000001
 40
2.356194490192344
 40
2.356194490192344
 40
2.356194490192344
 40
2.356194490192344
 40
2.670353755551324
 40
2.670353755551324
 40
2.97164101069275
 40
2.97164101069275
 40
3.216656691770962
 40
3.216656691770962
 40
3.470260289124841
 40
3.470260289124841
 40
3.736635563277971
 40
3.736635563277971
 40
4.011304785583482
 40
4.011304785583482
 40
4.287389518885
 40
4.287389518885
 40
4.557522071061921
 40
4.557522071061921
 40
4.815388296837168
 40
4.815388296837168
 40
5.061261598013408
 40
5.061261598013408
 40
5.320079977316968
 40
5.320079977316968
 40
5.497787143782137
 40
5.497787143782137
 40
5.497787143782137
 40
5.497787143782137
 10
-32.32700899606051
 20
16.06787060869086
 30
0.0
 10
-32.34009896545046
 20
16.07542810604183
 30
0.0
 10
-32.36705948900327
 20
16.08398591230404
 30
0.0
 10
-32.49743230019149
 20
16.30416957255564
 30
0.0
 10
-32.58431212136848
 20
16.51199894728122
 30
0.0
 10
-32.67717865869663
 20
17.08325795819026
 30
0.0
 10
-32.69482334990842
 20
17.4068895436956
 30
0.0
 10
-32.64749193467333
 20
18.16094146007444
 30
0.0
 10
-32.57996130509312
 20
18.59413028334952
 30
0.0
 10
-32.34369397377089
 20
19.53050563910805
 30
0.0
 10
-32.17027857838913
 20
20.03596790979667
 30
0.0
 10
-31.72326517692007
 20
21.05661396361099
 30
0.0
 10
-31.44682792457671
 20
21.57152734877032
 30
0.0
 10
-30.8222545744119
 20
22.54091713236054
 30
0.0
 10
-30.47377068679996
 20
22.99493613678912
 30
0.0
 10
-29.75752612472963
 20
23.78276757356136
 30
0.0
 10
-29.39030741644613
 20
24.11868700087844
 30
0.0
 10
-28.70091784458826
 20
24.64098140008052
 30
0.0
 10
-28.37763450874751
 20
24.83289728211153
 30
0.0
 10
-27.83051501251618
 20
25.08347501761734
 30
0.0
 10
-27.60399976175566
 20
25.14730796434108
 30
0.0
 10
-27.26771566419341
 20
25.20021430066027
 30
0.0
 10
-27.16867422675439
 20
25.18753864925072
 30
0.0
 10
-27.0924901508094
 20
25.1703416567581
 30
0.0
 10
-27.08441346132989
 20
25.16541231844394
 30
0.0
 10
-27.0770089960605
 20
25.16113734842747
 30
0.0
  0
SPLINE
  5
B6C
330
B3A
100
AcDbEntity
  8
0
100
AcDbSpline
210
0.0
220
0.0
230
1.0
 70
     8
 71
     3
 72
    22
 73
    18
 74
     0
 42
0.000000001
 43
0.0000000001
 40
3.926990816987239
 40
3.926990816987239
 40
3.926990816987239
 40
3.926990816987239
 40
4.116805541467796
 40
4.116805541467796
 40
4.320284866581095
 40
4.320284866581095
 40
4.566908685584335
 40
4.566908685584335
 40
4.894382107703334
 40
4.894382107703334
 40
5.316631577384133
 40
5.316631577384133
 40
5.766190867036893
 40
5.766190867036893
 40
6.215036425183772
 40
6.215036425183772
 40
6.283185307179586
 40
6.283185307179586
 40
6.283185307179586
 40
6.283185307179586
 10
-9.251368693387638
 20
-63.78482122103942
 30
0.0
 10
-8.966646606666799
 20
-63.94920559445193
 30
0.0
 10
-8.654922740019985
 20
-64.06431839832283
 30
0.0
 10
-8.020685900801378
 20
-64.19443756697383
 30
0.0
 10
-7.700634778552508
 20
-64.20334695745289
 30
0.0
 10
-7.053897331374106
 20
-64.13876224941194
 30
0.0
 10
-6.739031673343802
 20
-64.04965388743417
 30
0.0
 10
-6.090371099495026
 20
-63.78489084084247
 30
0.0
 10
-5.781138899725837
 20
-63.59054193588132
 30
0.0
 10
-5.160011942830804
 20
-63.09994535460328
 30
0.0
 10
-4.872175711938648
 20
-62.78822324547163
 30
0.0
 10
-4.366301794650695
 20
-62.0928812193404
 30
0.0
 10
-4.154820187505778
 20
-61.70551568503679
 30
0.0
 10
-3.835470054614553
 20
-60.87258417190174
 30
0.0
 10
-3.725360165402946
 20
-60.42771413433792
 30
0.0
 10
-3.692975766539934
 20
-59.86115217020728
 30
0.0
 10
-3.690708521607808
 20
-59.78535105398425
 30
0.0
 10
-3.690708521607799
 20
-59.70834717020586
 30
0.0
  0
LINE
  5
B6D
330
B3A
100
AcDbEntity
  8
0
100
AcDbLine
 10
-3.690708521607843
 20
-59.7083471702059
 30
0.0
 11
-3.690708521607843
 21
50.51869125503714
 31
0.0
  0
SPLINE
  5
B6E
330
B3A
100
AcDbEntity
  8
0
100
AcDbSpline
210
0.0
220
0.0
230
1.0
 70
     8
 71
     3
 72
    16
 73
    12
 74
     0
 42
0.000000001
 43
0.0000000001
 40
0.0000000000000068
 40
0.0000000000000068
 40
0.0000000000000068
 40
0.0000000000000068
 40
0.157079632679495
 40
0.157079632679495
 40
0.3141592653589833
 40
0.3141592653589833
 40
0.4712388980384716
 40
0.4712388980384716
 40
0.6283185307179597
 40
0.6283185307179597
 40
0.785398163397448
 40
0.785398163397448
 40
0.785398163397448
 40
0.785398163397448
 10
-3.690708521607799
 20
50.51869125503714
 30
0.0
 10
-3.690708521607799
 20
50.69618120680988
 30
0.0
 10
-3.702608345941609
 20
50.88014627757132
 30
0.0
 10
-3.75949306675392
 20
51.26202148624213
 30
0.0
 10
-3.804502556616338
 20
51.46011149926046
 30
0.0
 10
-3.941085796260157
 20
51.86664503366422
 30
0.0
 10
-4.032924722592925
 20
52.07531780463749
 30
0.0
 10
-4.277333223515693
 20
52.48809373421446
 30
0.0
 10
-4.430463368060193
 20
52.69207651559155
 30
0.0
 10
-4.799604228456031
 20
53.06563181171147
 30
0.0
 10
-5.015749244368388
 20
53.23438548216152
 30
0.0
 10
-5.251368693387625
 20
53.37042043447908
 30
0.0
  0
SPLINE
  5
B6F
330
B3A
100
AcDbEntity
  8
0
100
AcDbSpline
210
0.0
220
0.0
230
1.0
 70
     8
 71
     3
 72
    16
 73
    12
 74
     0
 42
0.000000001
 43
0.0000000001
 40
3.926990816987241
 40
3.926990816987241
 40
3.926990816987241
 40
3.926990816987241
 40
4.084070449666731
 40
4.084070449666731
 40
4.24115008234622
 40
4.24115008234622
 40
4.39822971502571
 40
4.39822971502571
 40
4.5553093477052
 40
4.5553093477052
 40
4.712388980384689
 40
4.712388980384689
 40
4.712388980384689
 40
4.712388980384689
 10
17.44191229640456
 20
70.42680426895547
 30
0.0
 10
17.67753174542379
 20
70.29076931663791
 30
0.0
 10
17.93174921897158
 20
70.18795907718143
 30
0.0
 10
18.43982802532758
 20
70.05505136256376
 30
0.0
 10
18.693047368207
 20
70.02442815799158
 30
0.0
 10
19.17272605975278
 20
70.01915215208008
 30
0.0
 10
19.39936144366011
 20
70.04395369430624
 30
0.0
 10
19.81972143176594
 20
70.1289359062454
 30
0.0
 10
20.01377716020702
 20
70.18900155112233
 30
0.0
 10
20.37293315239758
 20
70.33067554214709
 30
0.0
 10
20.5382014892529
 20
70.41235252735417
 30
0.0
 10
20.69191229640456
 20
70.50109750324054
 30
0.0
  0
LINE
  5
B70
330
B3A
100
AcDbEntity
  8
0
100
AcDbLine
 10
39.75866912259419
 20
80.91142891006908
 30
0.0
 11
42.76387294263709
 21
79.17637367559762
 31
0.0
  0
SPLINE
  5
B71
330
B3A
100
AcDbEntity
  8
0
100
AcDbSpline
210
0.0
220
0.0
230
1.0
 70
     8
 71
     3
 72
    16
 73
    12
 74
     0
 42
0.000000001
 43
0.0000000001
 40
4.712388980384689
 40
4.712388980384689
 40
4.712388980384689
 40
4.712388980384689
 40
4.869468613064179
 40
4.869468613064179
 40
5.026548245743668
 40
5.026548245743668
 40
5.183627878423158
 40
5.183627878423158
 40
5.340707511102648
 40
5.340707511102648
 40
5.497787143782137
 40
5.497787143782137
 40
5.497787143782137
 40
5.497787143782137
 10
42.76387294263709
 20
79.1763736755976
 30
0.0
 10
42.91758374978875
 20
79.08762869971123
 30
0.0
 10
43.08285208664408
 20
79.00595171450415
 30
0.0
 10
43.44200807883463
 20
78.86427772347939
 30
0.0
 10
43.63606380727571
 20
78.80421207860244
 30
0.0
 10
44.05642379538154
 20
78.7192298666633
 30
0.0
 10
44.28305917928887
 20
78.69442832443713
 30
0.0
 10
44.76273787083465
 20
78.69970433034864
 30
0.0
 10
45.01595721371407
 20
78.73032753492082
 30
0.0
 10
45.52403602007007
 20
78.86323524953849
 30
0.0
 10
45.77825349361785
 20
78.96604548899495
 30
0.0
 10
46.01387294263709
 20
79.10208044131252
 30
0.0
  0
LINE
  5
B72
330
B3A
100
AcDbEntity
  8
0
100
AcDbLine
 10
39.24090216962787
 20
84.50536143615364
 30
0.0
 11
39.24090216962787
 21
82.0558716933705
 31
0.0
  0
LINE
  5
B73
330
B3A
100
AcDbEntity
  8
0
100
AcDbLine
 10
59.57022212874111
 20
11.12273122527428
 30
0.0
 11
56.74179500399493
 21
9.489738063418826
 31
0.0
  0
LINE
  5
B74
330
B3A
100
AcDbEntity
  8
0
100
AcDbLine
 10
61.33798908170748
 20
12.14335195143393
 30
0.0
 11
59.57022212874111
 21
11.12273122527428
 31
0.0
  0
LINE
  5
B75
330
B3A
100
AcDbEntity
  8
0
100
AcDbLine
 10
56.74179500399496
 20
85.01567179923345
 30
0.0
 11
59.57022212874114
 21
80.11669231366708
 31
0.0
  0
LINE
  5
B76
330
B3A
100
AcDbEntity
  8
0
100
AcDbLine
 10
59.57022212874114
 20
80.11669231366708
 30
0.0
 11
61.3379890817075
 21
81.13731303982675
 31
0.0
  0
LINE
  5
B77
330
B3A
100
AcDbEntity
  8
0
100
AcDbLine
 10
21.49591167561554
 20
27.51585713955597
 30
0.0
 11
21.74000933526095
 21
27.65678698906081
 31
0.0
  0
LINE
  5
B78
330
B3A
100
AcDbEntity
  8
0
100
AcDbLine
 10
19.97224238229457
 20
-40.72480166363625
 30
0.0
 11
17.1438152575484
 21
-35.82582217806989
 31
0.0
  0
LINE
  5
B79
330
B3A
100
AcDbEntity
  8
0
100
AcDbLine
 10
-36.41952341733271
 20
-95.53213465840986
 30
0.0
 11
-39.24795054207891
 21
-93.89914149655442
 31
0.0
  0
LINE
  5
B7A
330
B3A
100
AcDbEntity
  8
0
100
AcDbLine
 10
-39.24795054207891
 20
-93.89914149655442
 30
0.0
 11
-41.01571749504528
 21
-92.87852077039477
 31
0.0
  0
LINE
  5
B7B
330
B3A
100
AcDbEntity
  8
0
100
AcDbLine
 10
-38.18729037029905
 20
52.45787063474051
 30
0.0
 11
-41.01571749504524
 21
47.55889114917415
 31
0.0
  0
LINE
  5
B7C
330
B3A
100
AcDbEntity
  8
0
100
AcDbLine
 10
-41.01571749504524
 20
47.55889114917415
 30
0.0
 11
-39.24795054207887
 21
46.5382704230145
 31
0.0
  0
LINE
  5
B7D
330
B3A
100
AcDbEntity
  8
0
100
AcDbLine
 10
-39.24795054207887
 20
46.5382704230145
 30
0.0
 11
-36.41952341733269
 21
51.43724990858085
 31
0.0
  0
LINE
  5
B7E
330
B3A
100
AcDbEntity
  8
0
100
AcDbLine
 10
-36.41952341733269
 20
51.43724990858085
 30
0.0
 11
-38.18729037029905
 21
52.45787063474051
 31
0.0
  0
LINE
  5
B7F
330
B3A
100
AcDbEntity
  8
0
100
AcDbLine
 10
61.3379890817075
 20
81.13731303982675
 30
0.0
 11
58.50956195696134
 21
86.03629252539311
 31
0.0
  0
LINE
  5
B80
330
B3A
100
AcDbEntity
  8
0
100
AcDbLine
 10
58.50956195696134
 20
86.03629252539311
 30
0.0
 11
56.74179500399496
 21
85.01567179923345
 31
0.0
  0
ELLIPSE
  5
B81
330
B3A
100
AcDbEntity
  8
0
100
AcDbEllipse
 10
38.35701869314473
 20
57.25478804769078
 30
0.0
 11
-2.749999999999996
 21
4.763139720814414
 31
0.0
210
0.0
220
0.0
230
1.0
 40
0.5773502691896255
 41
3.926990816987236
 42
7.068583470577037
  0
LINE
  5
B82
330
B3A
100
AcDbEntity
  8
0
100
AcDbLine
 10
42.24610598967074
 20
55.00942245013952
 30
0.0
 11
42.24610598967074
 21
54.34030713412512
 31
0.0
  0
ELLIPSE
  5
B83
330
B3A
100
AcDbEntity
  8
0
100
AcDbEllipse
 10
38.35701869314471
 20
18.06295216315995
 30
0.0
 11
23.74999999999751
 21
-41.13620667976227
 31
0.0
210
0.0
220
0.0
230
0.9999999999999998
 40
0.5773502691896251
 41
2.028956759833331
 42
2.240144707441
  0
ELLIPSE
  5
B84
330
B3A
100
AcDbEntity
  8
0
100
AcDbEllipse
 10
47.90296023916311
 20
45.02466600415683
 30
0.0
 11
2.749999999999713
 21
-4.76313972081458
 31
0.0
210
0.0
220
0.0
230
1.0
 40
0.5773502691896251
 41
5.170549413423071
 42
8.312142067012864
  0
ELLIPSE
  5
B85
330
B3A
100
AcDbEntity
  8
0
100
AcDbEllipse
 10
38.35701869314471
 20
18.06295216315995
 30
0.0
 11
-18.24999999999998
 21
31.60992723813204
 31
0.0
210
0.0
220
0.0
230
1.0
 40
0.5773502691896252
 41
5.170549413422996
 42
5.497787143782137
  0
ELLIPSE
  5
B86
330
B3A
100
AcDbEntity
  8
0
100
AcDbEllipse
 10
38.35701869314473
 20
52.35580856212442
 30
0.0
 11
-2.74999999999971
 21
4.76313972081458
 31
0.0
210
0.0
220
0.0
230
1.0
 40
0.5773502691896252
 41
0.7853981633976899
 42
2.356194490192587
  0
LINE
  5
B87
330
B3A
100
AcDbEntity
  8
0
100
AcDbLine
 10
34.46793139661872
 20
54.60117415967567
 30
0.0
 11
34.46793139661872
 21
59.50015364524202
 31
0.0
  0
ELLIPSE
  5
B88
330
B3A
100
AcDbEntity
  8
0
100
AcDbEllipse
 10
47.19585345797656
 20
21.1248143416389
 30
0.0
 11
-1.249999999999998
 21
2.165063509461097
 31
0.0
210
0.0
220
0.0
230
1.0
 40
0.5773502691896252
 41
0.0
 42
6.283185307179586
  0
ELLIPSE
  5
B89
330
B3A
100
AcDbEntity
  8
0
100
AcDbEllipse
 10
54.26692126984203
 20
23.81925305870039
 30
0.0
 11
-1.249999999999998
 21
2.165063509461097
 31
0.0
210
0.0
220
0.0
230
1.0
 40
0.5773502691896252
 41
0.0
 42
6.283185307179586
  0
ELLIPSE
  5
B8A
330
B3A
100
AcDbEntity
  8
0
100
AcDbEllipse
 10
29.5181839283129
 20
49.90631881934127
 30
0.0
 11
-1.249999999999998
 21
2.165063509461097
 31
0.0
210
0.0
220
0.0
230
1.0
 40
0.5773502691896252
 41
0.0
 42
6.283185307179586
  0
ELLIPSE
  5
B8B
330
B3A
100
AcDbEntity
  8
0
100
AcDbEllipse
 10
22.44711611644743
 20
63.99088484034452
 30
0.0
 11
1.249999999999998
 21
-2.165063509461097
 31
0.0
210
0.0
220
0.0
230
1.0
 40
0.5773502691896253
 41
5.268596401464873
 42
7.679457350984286
  0
ELLIPSE
  5
B8C
330
B3A
100
AcDbEntity
  8
0
100
AcDbEllipse
 10
29.5181839283129
 20
69.91048505207055
 30
0.0
 11
1.249999999999998
 21
-2.165063509461098
 31
0.0
210
0.0
220
0.0
230
0.9999999999999998
 40
0.5773502691896252
 41
5.040143331744739
 42
7.56722508176295
  0
ELLIPSE
  5
B8D
330
B3A
100
AcDbEntity
  8
0
100
AcDbEllipse
 10
47.19585345797656
 20
62.35789167848905
 30
0.0
 11
-1.249999999999998
 21
2.165063509461097
 31
0.0
210
0.0
220
0.0
230
1.0
 40
0.5773502691896252
 41
0.0
 42
6.283185307179586
  0
ELLIPSE
  5
B8E
330
B3A
100
AcDbEntity
  8
0
100
AcDbEllipse
 10
54.26692126984203
 20
68.07336774498313
 30
0.0
 11
-1.249999999999998
 21
2.165063509461097
 31
0.0
210
0.0
220
0.0
230
1.0
 40
0.5773502691896252
 41
0.0
 42
6.283185307179586
  0
ELLIPSE
  5
B8F
330
B3A
100
AcDbEntity
  8
0
100
AcDbEllipse
 10
54.26692126984204
 20
80.32081645889901
 30
0.0
 11
-1.249999999999998
 21
2.165063509461097
 31
0.0
210
0.0
220
0.0
230
1.0
 40
0.5773502691896252
 41
0.0
 42
6.283185307179586
  0
LINE
  5
B90
330
B3A
100
AcDbEntity
  8
0
100
AcDbLine
 10
59.57022212874114
 20
80.11669231366708
 30
0.0
 11
59.57022212874111
 21
11.12273122527428
 31
0.0
  0
LINE
  5
B91
330
B3A
100
AcDbEntity
  8
0
100
AcDbLine
 10
41.00866912259424
 20
94.09919626205445
 30
0.0
 11
56.74179500399496
 21
85.01567179923345
 31
0.0
  0
ELLIPSE
  5
B92
330
B3A
100
AcDbEntity
  8
0
100
AcDbEllipse
 10
39.77123225551782
 20
72.35997479485374
 30
0.0
 11
1.249999999999997
 21
-2.165063509461097
 31
0.0
210
0.0
220
0.0
230
0.9999999999999998
 40
0.5773502691896253
 41
5.497787143782138
 42
7.863982300761204
  0
LINE
  5
B93
330
B3A
100
AcDbEntity
  8
0
100
AcDbLine
 10
35.70536826369513
 20
72.66616101270166
 30
0.0
 11
39.77123225551782
 21
70.31873334253441
 31
0.0
  0
ELLIPSE
  5
B94
330
B3A
100
AcDbEntity
  8
0
100
AcDbEllipse
 10
31.28595088127925
 20
58.88778120954625
 30
0.0
 11
-9.999999999998953
 21
17.32050807568938
 31
0.0
210
0.0
220
0.0
230
1.0
 40
0.5773502691896253
 41
1.299243892896036
 42
2.356194490192587
  0
LINE
  5
B95
330
B3A
100
AcDbEntity
  8
0
100
AcDbLine
 10
39.77123225551782
 20
37.65887010542536
 30
0.0
 11
31.28595088127925
 21
42.55784959099172
 31
0.0
  0
ELLIPSE
  5
B96
330
B3A
100
AcDbEntity
  8
0
100
AcDbEllipse
 10
39.77123225551782
 20
35.61762865310605
 30
0.0
 11
1.249999999999998
 21
-2.165063509461097
 31
0.0
210
0.0
220
0.0
230
1.0
 40
0.5773502691896253
 41
6.273184640392868
 42
8.639379797371933
  0
LINE
  5
B97
330
B3A
100
AcDbEntity
  8
0
100
AcDbLine
 10
56.74179500399493
 20
9.489738063418826
 30
0.0
 11
41.00866912259424
 21
18.57326252623979
 31
0.0
  0
LINE
  5
B98
330
B3A
100
AcDbEntity
  8
0
100
AcDbLine
 10
61.33798908170748
 20
12.14335195143393
 30
0.0
 11
61.3379890817075
 21
81.13731303982675
 31
0.0
  0
LINE
  5
B99
330
B3A
100
AcDbEntity
  8
0
100
AcDbLine
 10
17.1438152575484
 20
-35.82582217806989
 30
0.0
 11
17.1438152575484
 21
-18.70008380355925
 31
0.0
  0
LINE
  5
B9A
330
B3A
100
AcDbEntity
  8
0
100
AcDbLine
 10
21.93138374036842
 20
27.54629692475598
 30
0.0
 11
21.74000933526095
 21
27.65678698906081
 31
0.0
  0
ELLIPSE
  5
B9B
330
B3A
100
AcDbEntity
  8
0
100
AcDbEllipse
 10
38.71057208373795
 20
1.500694844329331
 30
0.0
 11
-1.232730145047107
 21
2.135151243243667
 31
0.0
210
0.0
220
0.0
230
1.0
 40
0.5773502691896217
 41
1.791740548065119
 42
2.356194490192589
  0
LINE
  5
B9C
330
B3A
100
AcDbEntity
  8
0
100
AcDbLine
 10
47.19585345797645
 20
-5.411324538512225
 30
0.0
 11
38.71057208373795
 21
-0.5123450529458218
 31
0.0
  0
ELLIPSE
  5
B9D
330
B3A
100
AcDbEntity
  8
0
100
AcDbEllipse
 10
47.19585345797645
 20
-21.74125615706675
 30
0.0
 11
9.999999999999898
 21
-17.32050807568883
 31
0.0
210
0.0
220
0.0
230
1.0
 40
0.5773502691896219
 41
0.0
 42
2.356194490192347
  0
ELLIPSE
  5
B9E
330
B3A
100
AcDbEntity
  8
0
100
AcDbEllipse
 10
38.71057208373796
 20
-35.21344974237421
 30
0.0
 11
-1.249999999999986
 21
2.165063509461104
 31
0.0
210
0.0
220
0.0
230
1.0
 40
0.5773502691896217
 41
0.7853981633974643
 42
1.580796993581602
  0
ELLIPSE
  5
B9F
330
B3A
100
AcDbEntity
  8
0
100
AcDbEllipse
 10
48.96362041094281
 20
-12.75979376686171
 30
0.0
 11
1.250000000000115
 21
-2.165063509461029
 31
0.0
210
0.0
220
0.0
230
1.0
 40
0.5773502691896218
 41
3.926990816987004
 42
5.497787143781883
  0
ELLIPSE
  5
BA0
330
B3A
100
AcDbEntity
  8
0
100
AcDbEllipse
 10
56.03468822280824
 20
-26.84435978786507
 30
0.0
 11
1.250000000000115
 21
-2.165063509461029
 31
0.0
210
0.0
220
0.0
230
1.0
 40
0.5773502691896218
 41
3.926990816987002
 42
5.497787143781883
  0
ELLIPSE
  5
BA1
330
B3A
100
AcDbEntity
  8
0
100
AcDbEllipse
 10
48.96362041094281
 20
-32.76395999959099
 30
0.0
 11
1.250000000000115
 21
-2.165063509461029
 31
0.0
210
0.0
220
0.0
230
1.0
 40
0.5773502691896218
 41
3.926990816987002
 42
5.497787143781883
  0
ELLIPSE
  5
BA2
330
B3A
100
AcDbEntity
  8
0
100
AcDbEllipse
 10
24.21488306941381
 20
-22.76187688322626
 30
0.0
 11
1.250000000000115
 21
-2.165063509461029
 31
0.0
210
0.0
220
0.0
230
1.0
 40
0.5773502691896218
 41
3.926990816987002
 42
5.497787143781893
  0
ELLIPSE
  5
BA3
330
B3A
100
AcDbEntity
  8
0
100
AcDbEllipse
 10
31.28595088127926
 20
-39.09180850178083
 30
0.0
 11
1.250000000000115
 21
-2.165063509461029
 31
0.0
210
0.0
220
0.0
230
1.0
 40
0.5773502691896218
 41
3.926990816987002
 42
5.497787143781883
  0
ELLIPSE
  5
BA4
330
B3A
100
AcDbEntity
  8
0
100
AcDbEllipse
 10
30.57884410009271
 20
-12.57299629201167
 30
0.0
 11
-2.749999999999971
 21
4.763139720814429
 31
0.0
210
0.0
220
0.0
230
1.0
 40
0.5773502691896218
 41
0.3272204132950653
 42
2.028956759833204
  0
ELLIPSE
  5
BA5
330
B3A
100
AcDbEntity
  8
0
100
AcDbEllipse
 10
40.12478564611102
 20
14.38871754898516
 30
0.0
 11
23.74999999999976
 21
-41.13620667976099
 31
0.0
210
0.0
220
0.0
230
0.9999999999999998
 40
0.5773502691896218
 41
5.170549413423
 42
5.497787143782141
  0
ELLIPSE
  5
BA6
330
B3A
100
AcDbEntity
  8
0
100
AcDbEllipse
 10
40.12478564611104
 20
-19.90413884997929
 30
0.0
 11
2.74999999999997
 21
-4.763139720814431
 31
0.0
210
0.0
220
0.0
230
0.9999999999999998
 40
0.5773502691896216
 41
5.497787143782141
 42
5.955964893884517
  0
ELLIPSE
  5
BA7
330
B3A
100
AcDbEntity
  8
0
100
AcDbEllipse
 10
40.12478564611102
 20
-15.00515936441292
 30
0.0
 11
-2.749999999999971
 21
4.763139720814431
 31
0.0
210
0.0
220
0.0
230
1.0
 40
0.5773502691896217
 41
0.3272204132950689
 42
0.785398163397452
  0
LINE
  5
BA8
330
B3A
100
AcDbEntity
  8
0
100
AcDbLine
 10
36.23569834958505
 20
-12.75979376686166
 30
0.0
 11
36.23569834958505
 21
-12.82775657877604
 31
0.0
  0
LINE
  5
BA9
330
B3A
100
AcDbEntity
  8
0
100
AcDbLine
 10
-41.01571749504524
 20
47.55889114917415
 30
0.0
 11
-41.01571749504528
 21
-92.87852077039477
 31
0.0
  0
LINE
  5
BAA
330
B3A
100
AcDbEntity
  8
0
100
AcDbLine
 10
-34.70114870128828
 20
54.47059546577705
 30
0.0
 11
-38.18729037029905
 21
52.45787063474051
 31
0.0
  0
ELLIPSE
  5
BAB
330
B3A
100
AcDbEntity
  8
0
100
AcDbEllipse
 10
-31.82332933962012
 20
43.88465653499935
 30
0.0
 11
-2.625
 21
-4.546633369868303
 31
0.0
210
0.0
220
0.0
230
1.0
 40
0.5773502691896259
 41
0.3434286642675222
 42
0.7853981633974483
  0
LINE
  5
BAC
330
B3A
100
AcDbEntity
  8
0
100
AcDbLine
 10
-29.70200899606047
 20
40.82279435652035
 30
0.0
 11
-31.82332933962012
 21
39.59804948512877
 31
0.0
  0
ELLIPSE
  5
BAD
330
B3A
100
AcDbEntity
  8
0
100
AcDbEllipse
 10
-29.70200899606047
 20
45.10940140639093
 30
0.0
 11
-2.625000000000272
 21
-4.546633369868147
 31
0.0
210
0.0
220
0.0
230
0.9999999999999998
 40
0.5773502691896258
 41
0.7853981633976899
 42
2.356194490192585
  0
LINE
  5
BAE
330
B3A
100
AcDbEntity
  8
0
100
AcDbLine
 10
-25.98969839483109
 20
59.50015364524212
 30
0.0
 11
-25.98969839483109
 21
47.25270493132621
 31
0.0
  0
LINE
  5
BAF
330
B3A
100
AcDbEntity
  8
0
100
AcDbLine
 10
35.70536826369513
 20
95.1198169882141
 30
0.0
 11
-25.98969839483109
 21
59.50015364524212
 31
0.0
  0
ELLIPSE
  5
BB0
330
B3A
100
AcDbEntity
  8
0
100
AcDbEllipse
 10
28.82521928275004
 20
50.32273207561444
 30
0.0
 11
-12.5
 21
-21.65063509461097
 31
0.0
210
0.0
220
0.0
230
1.0
 40
0.5773502691896258
 41
0.0707697366622133
 42
0.7853981633974483
  0
LINE
  5
BB1
330
B3A
100
AcDbEntity
  8
0
100
AcDbLine
 10
35.70536826369513
 20
33.88257341863466
 30
0.0
 11
28.82521928275004
 21
29.91031755242128
 31
0.0
  0
LINE
  5
BB2
330
B3A
100
AcDbEntity
  8
0
100
AcDbLine
 10
35.70536826369513
 20
15.51140034776081
 30
0.0
 11
35.35181487310188
 21
15.30727620252889
 31
0.0
  0
ELLIPSE
  5
BB3
330
B3A
100
AcDbEntity
  8
0
100
AcDbEllipse
 10
28.82521928275004
 20
-23.16196020788094
 30
0.0
 11
-12.50000000000001
 21
-21.650635094611
 31
0.0
210
0.0
220
0.0
230
1.0
 40
0.5773502691896258
 41
0.0707697366622133
 42
0.7853981633974483
  0
LINE
  5
BB4
330
B3A
100
AcDbEntity
  8
0
100
AcDbLine
 10
35.70536826369514
 20
-39.60211886486071
 30
0.0
 11
28.82521928275004
 21
-43.5743747310741
 31
0.0
  0
LINE
  5
BB5
330
B3A
100
AcDbEntity
  8
0
100
AcDbLine
 10
-39.24795054207891
 20
-93.89914149655442
 30
0.0
 11
-39.24795054207887
 21
46.5382704230145
 31
0.0
  0
LINE
  5
BB6
330
B3A
100
AcDbEntity
  8
0
100
AcDbLine
 10
37.47313521666151
 20
-52.87018830493623
 30
0.0
 11
-36.41952341733271
 21
-95.53213465840986
 31
0.0
  0
LINE
  5
BB7
330
B3A
100
AcDbEntity
  8
0
100
AcDbLine
 10
30.59298623571642
 20
-44.59499545723375
 30
0.0
 11
37.47313521666151
 21
-40.62273959102038
 31
0.0
  0
ELLIPSE
  5
BB8
330
B3A
100
AcDbEntity
  8
0
100
AcDbEllipse
 10
30.59298623571642
 20
-24.18258093404059
 30
0.0
 11
-12.49999999999872
 21
-21.65063509461175
 31
0.0
210
0.0
220
0.0
230
1.0
 40
0.577350269189626
 41
4.001347393767684
 42
7.068583470576812
  0
LINE
  5
BB9
330
B3A
100
AcDbEntity
  8
0
100
AcDbLine
 10
37.4731352166615
 20
0.1456863452776247
 30
0.0
 11
29.27974615402576
 21
-4.584769035610456
 31
0.0
  0
LINE
  5
BBA
330
B3A
100
AcDbEntity
  8
0
100
AcDbLine
 10
37.11958182606825
 20
14.28665547636924
 30
0.0
 11
37.4731352166615
 21
14.49077962160116
 31
0.0
  0
ELLIPSE
  5
BBB
330
B3A
100
AcDbEntity
  8
0
100
AcDbEllipse
 10
37.11958182606825
 20
16.32789692868856
 30
0.0
 11
-1.249999999999868
 21
-2.165063509461167
 31
0.0
210
0.0
220
0.0
230
1.0
 40
0.5773502691896258
 41
3.926990816986998
 42
7.068583470576792
  0
LINE
  5
BBC
330
B3A
100
AcDbEntity
  8
0
100
AcDbLine
 10
37.4731352166615
 20
18.57326252623979
 30
0.0
 11
37.11958182606825
 21
18.36913838100787
 31
0.0
  0
LINE
  5
BBD
330
B3A
100
AcDbEntity
  8
0
100
AcDbLine
 10
30.59298623571641
 20
28.88969682626161
 30
0.0
 11
37.4731352166615
 21
32.861952692475
 31
0.0
  0
ELLIPSE
  5
BBE
330
B3A
100
AcDbEntity
  8
0
100
AcDbEllipse
 10
30.59298623571641
 20
49.30211134945476
 30
0.0
 11
-12.4999999999987
 21
-21.65063509461172
 31
0.0
210
0.0
220
0.0
230
1.0
 40
0.5773502691896258
 41
3.926990816986998
 42
7.068583470576792
  0
LINE
  5
BBF
330
B3A
100
AcDbEntity
  8
0
100
AcDbLine
 10
37.4731352166615
 20
73.68678173886131
 30
0.0
 11
30.59298623571641
 21
69.71452587264792
 31
0.0
  0
LINE
  5
BC0
330
B3A
100
AcDbEntity
  8
0
100
AcDbLine
 10
-24.22193144186472
 20
58.47953291908246
 30
0.0
 11
37.4731352166615
 21
94.09919626205445
 31
0.0
  0
LINE
  5
BC1
330
B3A
100
AcDbEntity
  8
0
100
AcDbLine
 10
-24.22193144186472
 20
46.23208420516656
 30
0.0
 11
-24.22193144186472
 21
58.47953291908246
 31
0.0
  0
ELLIPSE
  5
BC2
330
B3A
100
AcDbEntity
  8
0
100
AcDbEllipse
 10
-27.9342420430941
 20
44.08878068023128
 30
0.0
 11
2.624999999999728
 21
4.546633369868458
 31
0.0
210
0.0
220
0.0
230
1.0
 40
0.577350269189626
 41
3.926990816986998
 42
5.497787143781897
  0
LINE
  5
BC3
330
B3A
100
AcDbEntity
  8
0
100
AcDbLine
 10
-30.05556238665375
 20
38.57742875896911
 30
0.0
 11
-27.9342420430941
 21
39.8021736303607
 31
0.0
  0
ELLIPSE
  5
BC4
330
B3A
100
AcDbEntity
  8
0
100
AcDbEllipse
 10
-30.05556238665375
 20
42.86403580883969
 30
0.0
 11
-2.625
 21
-4.546633369868304
 31
0.0
210
0.0
220
0.0
230
1.0
 40
0.5773502691896258
 41
4.369901861060881
 42
7.068583470577034
  0
LINE
  5
BC5
330
B3A
100
AcDbEntity
  8
0
100
AcDbLine
 10
-31.64655264432348
 20
50.11044296457324
 30
0.0
 11
-31.64655264432349
 21
45.8184605015034
 31
0.0
  0
LINE
  5
BC6
330
B3A
100
AcDbEntity
  8
0
100
AcDbLine
 10
-32.93338174832191
 20
53.44997473961739
 30
0.0
 11
-31.64655264432348
 21
50.11044296457324
 31
0.0
  0
LINE
  5
BC7
330
B3A
100
AcDbEntity
  8
0
100
AcDbLine
 10
-36.41952341733269
 20
51.43724990858085
 30
0.0
 11
-32.93338174832191
 21
53.44997473961739
 31
0.0
  0
LINE
  5
BC8
330
B3A
100
AcDbEntity
  8
0
100
AcDbLine
 10
41.53899920848418
 20
71.33935406869406
 30
0.0
 11
37.4731352166615
 21
73.68678173886131
 31
0.0
  0
LINE
  5
BC9
330
B3A
100
AcDbEntity
  8
0
100
AcDbLine
 10
58.50956195696134
 20
86.03629252539311
 30
0.0
 11
42.7764360755606
 21
95.1198169882141
 31
0.0
  0
ELLIPSE
  5
BCA
330
B3A
100
AcDbEntity
  8
0
100
AcDbEllipse
 10
40.12478564611109
 20
58.27540877385044
 30
0.0
 11
-2.749999999999996
 21
4.763139720814415
 31
0.0
210
0.0
220
0.0
230
1.0
 40
0.5773502691896252
 41
0.3272204132950645
 42
0.7853981633974515
  0
LINE
  5
BCB
330
B3A
100
AcDbEntity
  8
0
100
AcDbLine
 10
36.23569834958509
 20
60.52077437140169
 30
0.0
 11
36.23569834958509
 21
55.62179488583533
 31
0.0
  0
ELLIPSE
  5
BCC
330
B3A
100
AcDbEntity
  8
0
100
AcDbEllipse
 10
40.12478564611109
 20
53.37642928828408
 30
0.0
 11
2.750000000000281
 21
-4.763139720814251
 31
0.0
210
0.0
220
0.0
230
1.0
 40
0.5773502691896252
 41
3.926990816987
 42
5.497787143781897
  0
ELLIPSE
  5
BCD
330
B3A
100
AcDbEntity
  8
0
100
AcDbEllipse
 10
40.12478564611108
 20
19.0835728893196
 30
0.0
 11
18.24999999999809
 21
-31.60992723813311
 31
0.0
210
0.0
220
0.0
230
0.9999999999999998
 40
0.5773502691896252
 41
2.028956759833363
 42
2.356194490192587
  0
ELLIPSE
  5
BCE
330
B3A
100
AcDbEntity
  8
0
100
AcDbEllipse
 10
49.67072719212947
 20
46.04528673031649
 30
0.0
 11
2.749999999999996
 21
-4.763139720814414
 31
0.0
210
0.0
220
0.0
230
1.0
 40
0.5773502691896253
 41
5.170549413422998
 42
5.955964893884521
  0
ELLIPSE
  5
BCF
330
B3A
100
AcDbEntity
  8
0
100
AcDbEllipse
 10
48.96362041094293
 20
22.14543506779855
 30
0.0
 11
1.250000000000127
 21
-2.165063509461022
 31
0.0
210
0.0
220
0.0
230
1.0
 40
0.5773502691896253
 41
3.926990816987
 42
5.497787143781895
  0
ELLIPSE
  5
BD0
330
B3A
100
AcDbEntity
  8
0
100
AcDbEllipse
 10
56.0346882228084
 20
24.83987378486006
 30
0.0
 11
1.250000000000127
 21
-2.165063509461022
 31
0.0
210
0.0
220
0.0
230
1.0
 40
0.5773502691896253
 41
3.926990816987
 42
5.497787143781895
  0
ELLIPSE
  5
BD1
330
B3A
100
AcDbEntity
  8
0
100
AcDbEllipse
 10
31.28595088127926
 20
50.92693954550092
 30
0.0
 11
1.250000000000127
 21
-2.165063509461022
 31
0.0
210
0.0
220
0.0
230
1.0
 40
0.5773502691896253
 41
3.926990816987
 42
5.497787143781895
  0
ELLIPSE
  5
BD2
330
B3A
100
AcDbEntity
  8
0
100
AcDbEllipse
 10
24.21488306941381
 20
65.01150556650419
 30
0.0
 11
1.249999999999998
 21
-2.165063509461097
 31
0.0
210
0.0
220
0.0
230
1.0
 40
0.5773502691896253
 41
4.983714944865843
 42
5.497787143782138
  0
ELLIPSE
  5
BD3
330
B3A
100
AcDbEntity
  8
0
100
AcDbEllipse
 10
31.28595088127926
 20
70.9311057782302
 30
0.0
 11
1.249999999999998
 21
-2.165063509461097
 31
0.0
210
0.0
220
0.0
230
1.0
 40
0.5773502691896252
 41
4.999418128059497
 42
5.497787143782137
  0
ELLIPSE
  5
BD4
330
B3A
100
AcDbEntity
  8
0
100
AcDbEllipse
 10
48.96362041094293
 20
63.37851240464871
 30
0.0
 11
1.250000000000127
 21
-2.165063509461022
 31
0.0
210
0.0
220
0.0
230
1.0
 40
0.5773502691896253
 41
3.926990816987
 42
5.497787143781895
  0
ELLIPSE
  5
BD5
330
B3A
100
AcDbEntity
  8
0
100
AcDbEllipse
 10
56.03468822280841
 20
69.09398847114279
 30
0.0
 11
1.250000000000127
 21
-2.165063509461022
 31
0.0
210
0.0
220
0.0
230
1.0
 40
0.5773502691896253
 41
3.926990816987
 42
5.497787143781895
  0
ELLIPSE
  5
BD6
330
B3A
100
AcDbEntity
  8
0
100
AcDbEllipse
 10
56.03468822280841
 20
81.34143718505866
 30
0.0
 11
1.250000000000127
 21
-2.165063509461023
 31
0.0
210
0.0
220
0.0
230
1.0
 40
0.5773502691896252
 41
3.926990816987004
 42
5.4977871437819
  0
LINE
  5
BD7
330
B3A
100
AcDbEntity
  8
0
100
AcDbLine
 10
28.82521928275004
 20
-43.5743747310741
 30
0.0
 11
30.59298623571642
 21
-44.59499545723375
 31
0.0
  0
LINE
  5
BD8
330
B3A
100
AcDbEntity
  8
0
100
AcDbLine
 10
28.82521928275004
 20
29.91031755242128
 30
0.0
 11
30.59298623571641
 21
28.88969682626161
 31
0.0
  0
LINE
  5
BD9
330
B3A
100
AcDbEntity
  8
0
100
AcDbLine
 10
35.35181487310188
 20
15.30727620252889
 30
0.0
 11
37.11958182606825
 21
14.28665547636924
 31
0.0
  0
LINE
  5
BDA
330
B3A
100
AcDbEntity
  8
0
100
AcDbLine
 10
-34.70114870128828
 20
54.47059546577705
 30
0.0
 11
-32.93338174832191
 21
53.44997473961739
 31
0.0
  0
LINE
  5
BDB
330
B3A
100
AcDbEntity
  8
0
100
AcDbLine
 10
-31.82332933962012
 20
39.59804948512877
 30
0.0
 11
-30.05556238665375
 21
38.57742875896911
 31
0.0
  0
LINE
  5
BDC
330
B3A
100
AcDbEntity
  8
0
100
AcDbLine
 10
-29.70200899606047
 20
40.82279435652035
 30
0.0
 11
-27.9342420430941
 21
39.8021736303607
 31
0.0
  0
LINE
  5
BDD
330
B3A
100
AcDbEntity
  8
0
100
AcDbLine
 10
-25.98969839483109
 20
47.25270493132621
 30
0.0
 11
-24.22193144186472
 21
46.23208420516656
 31
0.0
  0
LINE
  5
BDE
330
B3A
100
AcDbEntity
  8
0
100
AcDbLine
 10
-25.98969839483109
 20
59.50015364524212
 30
0.0
 11
-24.22193144186472
 21
58.47953291908246
 31
0.0
  0
ELLIPSE
  5
BDF
330
B3A
100
AcDbEntity
  8
0
100
AcDbEllipse
 10
36.94280513077158
 20
0.4800741181696644
 30
0.0
 11
1.232730145047235
 21
-2.135151243243594
 31
0.0
210
0.0
220
0.0
230
1.0
 40
0.5773502691896216
 41
4.939342333481317
 42
5.497787143782138
  0
LINE
  5
BE0
330
B3A
100
AcDbEntity
  8
0
100
AcDbLine
 10
36.94280513077158
 20
-1.532965779105488
 30
0.0
 11
38.71057208373795
 21
-0.5123450529458218
 31
0.0
  0
LINE
  5
BE1
330
B3A
100
AcDbEntity
  8
0
100
AcDbLine
 10
36.94280513077158
 20
-1.532965779105488
 30
0.0
 11
45.42808650501007
 21
-6.431945264671874
 31
0.0
  0
LINE
  5
BE2
330
B3A
100
AcDbEntity
  8
0
100
AcDbLine
 10
45.42808650501007
 20
-6.431945264671874
 30
0.0
 11
47.19585345797645
 21
-5.411324538512225
 31
0.0
  0
ELLIPSE
  5
BE3
330
B3A
100
AcDbEntity
  8
0
100
AcDbEllipse
 10
45.42808650501007
 20
-22.7618768832264
 30
0.0
 11
9.999999999998859
 21
-17.32050807568943
 31
0.0
210
0.0
220
0.0
230
1.0
 40
0.5773502691896218
 41
5.497787143782383
 42
8.639379797372177
  0
LINE
  5
BE4
330
B3A
100
AcDbEntity
  8
0
100
AcDbLine
 10
45.42808650501007
 20
-39.09180850178092
 30
0.0
 11
36.94280513077158
 21
-34.19282901621454
 31
0.0
  0
LINE
  5
BE5
330
B3A
100
AcDbEntity
  8
0
100
AcDbLine
 10
26.74353873383975
 20
-44.63421143496365
 30
0.0
 11
19.97224238229457
 21
-40.72480166363625
 31
0.0
  0
ELLIPSE
  5
BE6
330
B3A
100
AcDbEntity
  8
0
100
AcDbEllipse
 10
47.19585345797642
 20
-13.78041449302136
 30
0.0
 11
1.249999999999986
 21
-2.165063509461104
 31
0.0
210
0.0
220
0.0
230
1.0
 40
0.5773502691896217
 41
0.0
 42
6.283185307179586
  0
ELLIPSE
  5
BE7
330
B3A
100
AcDbEntity
  8
0
100
AcDbEllipse
 10
54.26692126984185
 20
-27.86498051402471
 30
0.0
 11
1.249999999999986
 21
-2.165063509461104
 31
0.0
210
0.0
220
0.0
230
1.0
 40
0.5773502691896217
 41
0.0
 42
6.283185307179586
  0
ELLIPSE
  5
BE8
330
B3A
100
AcDbEntity
  8
0
100
AcDbEllipse
 10
47.19585345797642
 20
-33.78458072575064
 30
0.0
 11
1.249999999999986
 21
-2.165063509461104
 31
0.0
210
0.0
220
0.0
230
1.0
 40
0.5773502691896217
 41
0.0
 42
6.283185307179586
  0
ELLIPSE
  5
BE9
330
B3A
100
AcDbEntity
  8
0
100
AcDbEllipse
 10
22.44711611644743
 20
-23.78249760938592
 30
0.0
 11
1.249999999999986
 21
-2.165063509461104
 31
0.0
210
0.0
220
0.0
230
1.0
 40
0.5773502691896217
 41
0.0
 42
6.283185307179586
  0
ELLIPSE
  5
BEA
330
B3A
100
AcDbEntity
  8
0
100
AcDbEllipse
 10
29.51818392831287
 20
-40.11242922794048
 30
0.0
 11
1.249999999999986
 21
-2.165063509461104
 31
0.0
210
0.0
220
0.0
230
1.0
 40
0.5773502691896217
 41
0.0
 42
6.283185307179586
  0
LINE
  5
BEB
330
B3A
100
AcDbEntity
  8
0
100
AcDbLine
 10
34.46793139661867
 20
-13.78041449302131
 30
0.0
 11
36.23569834958505
 21
-12.75979376686166
 31
0.0
  0
LINE
  5
BEC
330
B3A
100
AcDbEntity
  8
0
100
AcDbLine
 10
34.46793139661867
 20
-13.84837730493569
 30
0.0
 11
34.46793139661867
 21
-13.78041449302131
 31
0.0
  0
LINE
  5
BED
330
B3A
100
AcDbEntity
  8
0
100
AcDbLine
 10
34.46793139661867
 20
-13.84837730493569
 30
0.0
 11
36.23569834958505
 21
-12.82775657877604
 31
0.0
  0
ELLIPSE
  5
BEE
330
B3A
100
AcDbEntity
  8
0
100
AcDbEllipse
 10
38.35701869314465
 20
-16.02578009057257
 30
0.0
 11
-2.74999999999997
 21
4.763139720814429
 31
0.0
210
0.0
220
0.0
230
1.0
 40
0.5773502691896218
 41
3.926990816987244
 42
7.068583470577037
  0
LINE
  5
BEF
330
B3A
100
AcDbEntity
  8
0
100
AcDbLine
 10
42.24610598967062
 20
-18.27114568812383
 30
0.0
 11
42.24610598967062
 21
-23.17012517369021
 31
0.0
  0
LINE
  5
BF0
330
B3A
100
AcDbEntity
  8
0
100
AcDbLine
 10
38.35701869314465
 20
-25.41549077124143
 30
0.0
 11
40.12478564611104
 21
-24.39487004508178
 31
0.0
  0
ELLIPSE
  5
BF1
330
B3A
100
AcDbEntity
  8
0
100
AcDbEllipse
 10
38.35701869314465
 20
-20.92475957613894
 30
0.0
 11
2.74999999999997
 21
-4.763139720814429
 31
0.0
210
0.0
220
0.0
230
1.0
 40
0.5773502691896218
 41
5.49778714378214
 42
7.068583470577037
  0
LINE
  5
BF2
330
B3A
100
AcDbEntity
  8
0
100
AcDbLine
 10
27.56101337324296
 20
-17.12431764020662
 30
0.0
 11
29.32878032620934
 21
-16.10369691404697
 31
0.0
  0
ELLIPSE
  5
BF3
330
B3A
100
AcDbEntity
  8
0
100
AcDbEllipse
 10
38.35701869314464
 20
13.36809682282551
 30
0.0
 11
-23.74999999999729
 21
41.1362066797624
 31
0.0
210
0.0
220
0.0
230
0.9999999999999998
 40
0.5773502691896218
 41
2.028956759833366
 42
2.35619449019259
  0
ELLIPSE
  5
BF4
330
B3A
100
AcDbEntity
  8
0
100
AcDbEllipse
 10
28.81107714712632
 20
-13.59361701817132
 30
0.0
 11
-2.749999999999684
 21
4.763139720814594
 31
0.0
210
0.0
220
0.0
230
1.0
 40
0.5773502691896218
 41
5.170549413423074
 42
8.312142067012864
  0
ELLIPSE
  5
BF5
330
B3A
100
AcDbEntity
  8
0
100
AcDbEllipse
 10
38.35701869314464
 20
13.36809682282551
 30
0.0
 11
18.2499999999998
 21
-31.60992723813212
 31
0.0
210
0.0
220
0.0
230
1.0
 40
0.5773502691896219
 41
5.170549413423
 42
5.346526065036258
  0
ELLIPSE
  5
BF6
330
B3A
100
AcDbEntity
  8
0
100
AcDbEllipse
 10
36.94280513077158
 20
-36.23407046853386
 30
0.0
 11
-1.249999999999986
 21
2.165063509461104
 31
0.0
210
0.0
220
0.0
230
1.0
 40
0.5773502691896217
 41
5.497787143782141
 42
7.86398230076119
  0
LINE
  5
BF7
330
B3A
100
AcDbEntity
  8
0
100
AcDbLine
 10
41.53899920848418
 20
71.33935406869406
 30
0.0
 11
39.77123225551782
 21
70.31873334253441
 31
0.0
  0
LINE
  5
BF8
330
B3A
100
AcDbEntity
  8
0
100
AcDbLine
 10
36.23569834958509
 20
55.62179488583533
 30
0.0
 11
34.46793139661872
 21
54.60117415967567
 31
0.0
  0
LINE
  5
BF9
330
B3A
100
AcDbEntity
  8
0
100
AcDbLine
 10
36.23569834958509
 20
60.52077437140169
 30
0.0
 11
34.46793139661872
 21
59.50015364524202
 31
0.0
  0
LINE
  5
BFA
330
B3A
100
AcDbEntity
  8
0
100
AcDbLine
 10
40.12478564611109
 20
48.88569809318157
 30
0.0
 11
38.35701869314473
 21
47.86507736702191
 31
0.0
  0
LINE
  5
BFB
330
B3A
100
AcDbEntity
  8
0
100
AcDbLine
 10
48.42066341824612
 20
42.51458610828117
 30
0.0
 11
46.65289646527975
 21
41.49396538212151
 31
0.0
  0
LINE
  5
BFC
330
B3A
100
AcDbEntity
  8
0
100
AcDbLine
 10
55.42808650500997
 20
-40.08238495891524
 30
0.0
 11
57.19585345797636
 21
-39.06176423275559
 31
0.0
  0
LINE
  5
BFD
330
B3A
100
AcDbEntity
  8
0
100
AcDbLine
 10
41.00866912259424
 20
94.09919626205445
 30
0.0
 11
41.00866912259423
 21
87.5672236146326
 31
0.0
  0
LINE
  5
BFE
330
B3A
100
AcDbEntity
  8
0
100
AcDbLine
 10
41.00866912259423
 20
80.18974107358202
 30
0.0
 11
41.00866912259424
 21
73.10327826025336
 31
0.0
  0
LINE
  5
BFF
330
B3A
100
AcDbEntity
  8
0
100
AcDbLine
 10
41.00866912259424
 20
33.44545617108295
 30
0.0
 11
41.00866912259424
 21
18.57326252623979
 31
0.0
  0
LINE
  5
C00
330
B3A
100
AcDbEntity
  8
0
100
AcDbLine
 10
37.4731352166615
 20
18.57326252623979
 30
0.0
 11
37.4731352166615
 21
32.861952692475
 31
0.0
  0
LINE
  5
C01
330
B3A
100
AcDbEntity
  8
0
100
AcDbLine
 10
37.4731352166615
 20
73.68678173886131
 30
0.0
 11
37.4731352166615
 21
80.18974107358202
 31
0.0
  0
LINE
  5
C02
330
B3A
100
AcDbEntity
  8
0
100
AcDbLine
 10
37.4731352166615
 20
87.5672236146326
 30
0.0
 11
37.4731352166615
 21
94.09919626205445
 31
0.0
  0
ELLIPSE
  5
C03
330
B3A
100
AcDbEntity
  8
0
100
AcDbEllipse
 10
39.24090216962787
 20
93.07857553589476
 30
0.0
 11
4.999999999999999
 21
-0.0000000000002984
 31
0.0
210
0.0
220
0.0
230
1.0
 40
0.5773502691896259
 41
0.7853981633976908
 42
2.356194490192585
  0
ELLIPSE
  5
C04
330
B3A
100
AcDbEntity
  8
0
100
AcDbEllipse
 10
39.24090216962787
 20
72.66616101270165
 30
0.0
 11
2.499999999999999
 21
-0.0000000000001496
 31
0.0
210
0.0
220
0.0
230
1.0
 40
0.5773502691896259
 41
1.308996938995855
 42
2.356194490192589
  0
SPLINE
  5
C05
330
B3A
100
AcDbEntity
  8
0
100
AcDbSpline
210
0.0
220
0.0
230
1.0
 70
     8
 71
     3
 72
    12
 73
     8
 74
     0
 42
0.000000001
 43
0.0000000001
 40
0.0
 40
0.0
 40
0.0
 40
0.0
 40
0.04839393156936
 40
0.04839393156936
 40
0.0973081656897928
 40
0.0973081656897928
 40
0.1727322110457007
 40
0.1727322110457007
 40
0.1727322110457007
 40
0.1727322110457007
 10
39.88794978238421
 20
74.06035485226467
 30
0.0
 10
40.04376627677451
 20
74.03625394400068
 30
0.0
 10
40.19244816426759
 20
73.98113243393931
 30
0.0
 10
40.46868884347758
 20
73.81654082126671
 30
0.0
 10
40.59159043967148
 20
73.70925941373998
 30
0.0
 10
40.86386557007651
 20
73.3949974234155
 30
0.0
 10
40.96121062779504
 20
73.20224140062851
 30
0.0
 10
41.00866912259424
 20
73.10327826025335
 30
0.0
  0
ELLIPSE
  5
C06
330
B3A
100
AcDbEntity
  8
0
100
AcDbEllipse
 10
39.24090216962787
 20
93.07857553589476
 30
0.0
 11
-2.499999999999999
 21
-0.0000000000001486
 31
0.0
210
0.0
220
0.0
230
1.0
 40
0.5773502691896259
 41
3.926990816986993
 42
5.497787143781889
  0
ELLIPSE
  5
C07
330
B3A
100
AcDbEntity
  8
0
100
AcDbEllipse
 10
39.24090216962787
 20
31.84133196631533
 30
0.0
 11
5.0
 21
-0.0000000000002973
 31
0.0
210
0.0
220
0.0
230
1.0
 40
0.5773502691896258
 41
1.308996938995854
 42
2.356194490192585
  0
SPLINE
  5
C08
330
B3A
100
AcDbEntity
  8
0
100
AcDbSpline
210
0.0
220
0.0
230
1.0
 70
     8
 71
     3
 72
     8
 73
     4
 74
     0
 42
0.000000001
 43
0.0000000001
 40
0.0
 40
0.0
 40
0.0
 40
0.0
 40
0.108638318483373
 40
0.108638318483373
 40
0.108638318483373
 40
0.108638318483373
 10
40.53499739514053
 20
34.62971964544135
 30
0.0
 10
40.88478592029087
 20
34.57560508862302
 30
0.0
 10
41.22221824022594
 20
34.52751058669163
 30
0.0
 10
41.53657769444428
 20
34.49200386135625
 30
0.0
  0
ELLIPSE
  5
C09
330
B3A
100
AcDbEntity
  8
0
100
AcDbEllipse
 10
39.24090216962787
 20
17.55264180008013
 30
0.0
 11
2.5
 21
-0.0000000000001489
 31
0.0
210
0.0
220
0.0
230
1.0
 40
0.5773502691896258
 41
0.7853981633976899
 42
2.356194490192589
  0
SPLINE
  5
C0A
330
B3A
100
AcDbEntity
  8
0
100
AcDbSpline
210
0.0
220
0.0
230
1.0
 70
     8
 71
     3
 72
    12
 73
     8
 74
     0
 42
0.000000001
 43
0.0000000001
 40
0.0
 40
0.0
 40
0.0
 40
0.0
 40
0.0373203676587967
 40
0.0373203676587967
 40
0.0541955352955324
 40
0.0541955352955324
 40
0.0700894530141588
 40
0.0700894530141588
 40
0.0700894530141588
 40
0.0700894530141588
 10
41.00866912259424
 20
33.44545617108295
 30
0.0
 10
40.95518818140965
 20
33.39568915610307
 30
0.0
 10
40.83086712494277
 20
33.29300097691362
 30
0.0
 10
40.50241621238362
 20
33.217652340782
 30
0.0
 10
40.38814570317957
 20
33.20568170896783
 30
0.0
 10
40.14397001404602
 20
33.20521547000947
 30
0.0
 10
40.01827514343708
 20
33.21536106736438
 30
0.0
 10
39.8879497823842
 20
33.23552580587834
 30
0.0
  0
ELLIPSE
  5
C0B
330
B3A
100
AcDbEntity
  8
0
100
AcDbEllipse
 10
39.24090216962787
 20
31.84133196631533
 30
0.0
 11
-2.499999999999999
 21
0.0000000000000003
 31
0.0
210
0.0
220
0.0
230
1.0
 40
0.5773502691896257
 41
4.450589592585526
 42
5.497787143782138
  0
LINE
  5
C0C
330
B3A
100
AcDbEntity
  8
0
100
AcDbLine
 10
41.03367037281327
 20
33.45989064962699
 30
0.0
 11
41.00866912259424
 21
33.44545617108295
 31
0.0
  0
LINE
  5
C0D
330
B3A
100
AcDbEntity
  8
0
100
AcDbLine
 10
39.8879497823842
 20
33.23552580587834
 30
0.0
 11
40.53499739514053
 21
34.62971964544135
 31
0.0
  0
LINE
  5
C0E
330
B3A
100
AcDbEntity
  8
0
100
AcDbLine
 10
37.4731352166615
 20
32.861952692475
 30
0.0
 11
35.70536826369513
 21
33.88257341863466
 31
0.0
  0
LINE
  5
C0F
330
B3A
100
AcDbEntity
  8
0
100
AcDbLine
 10
42.7764360755606
 20
95.1198169882141
 30
0.0
 11
41.00866912259424
 21
94.09919626205445
 31
0.0
  0
LINE
  5
C10
330
B3A
100
AcDbEntity
  8
0
100
AcDbLine
 10
37.4731352166615
 20
94.09919626205445
 30
0.0
 11
35.70536826369513
 21
95.1198169882141
 31
0.0
  0
LINE
  5
C11
330
B3A
100
AcDbEntity
  8
0
100
AcDbLine
 10
37.47313521666151
 20
-52.87018830493623
 30
0.0
 11
37.47313521666151
 21
-40.62273959102038
 31
0.0
  0
LINE
  5
C12
330
B3A
100
AcDbEntity
  8
0
100
AcDbLine
 10
37.4731352166615
 20
0.1456863452776247
 30
0.0
 11
37.4731352166615
 21
14.49077962160116
 31
0.0
  0
ELLIPSE
  5
C13
330
B3A
100
AcDbEntity
  8
0
100
AcDbEllipse
 10
33.93760131072878
 20
16.53202107392049
 30
0.0
 11
2.499999999999999
 21
-0.0000000000000001
 31
0.0
210
0.0
220
0.0
230
1.0
 40
0.5773502691896259
 41
5.497787143782126
 42
6.857406926365599
  0
LINE
  5
C14
330
B3A
100
AcDbEntity
  8
0
100
AcDbLine
 10
35.70536826369515
 20
15.51140034776081
 30
0.0
 11
35.70536826369515
 21
16.7361452191524
 31
0.0
  0
ELLIPSE
  5
C15
330
B3A
100
AcDbEntity
  8
0
100
AcDbEllipse
 10
33.93760131072878
 20
16.53202107392049
 30
0.0
 11
5.000000000000001
 21
0.0000000000000006
 31
0.0
210
0.0
220
0.0
230
1.0
 40
0.5773502691896259
 41
5.497787143782132
 42
7.068583470577028
  0
ELLIPSE
  5
C16
330
B3A
100
AcDbEntity
  8
0
100
AcDbEllipse
 10
33.93760131072878
 20
2.186927797596958
 30
0.0
 11
4.999999999999999
 21
-0.0000000000000003
 31
0.0
210
0.0
220
0.0
230
1.0
 40
0.5773502691896259
 41
5.497787143782131
 42
6.283185307179586
  0
LINE
  5
C17
330
B3A
100
AcDbEntity
  8
0
100
AcDbLine
 10
37.4731352166615
 20
14.49077962160116
 30
0.0
 11
35.70536826369513
 21
15.51140034776081
 31
0.0
  0
ELLIPSE
  5
C18
330
B3A
100
AcDbEntity
  8
0
100
AcDbEllipse
 10
33.93760131072878
 20
-50.82894685261691
 30
0.0
 11
5.0
 21
-0.0000000000000003
 31
0.0
210
0.0
220
0.0
230
1.0
 40
0.5773502691896258
 41
5.497787143782133
 42
6.283185307179586
  0
ELLIPSE
  5
C19
330
B3A
100
AcDbEntity
  8
0
100
AcDbEllipse
 10
33.93760131072878
 20
-38.58149813870096
 30
0.0
 11
4.999999999999989
 21
0.0000000000000003
 31
0.0
210
0.0
220
0.0
230
1.0
 40
0.5773502691896259
 41
5.497787143782135
 42
6.544984694978736
  0
LINE
  5
C1A
330
B3A
100
AcDbEntity
  8
0
100
AcDbLine
 10
36.35241587645145
 20
-38.20792502529766
 30
0.0
 11
38.76723044217412
 21
-37.83435191189432
 31
0.0
  0
ELLIPSE
  5
C1B
330
B3A
100
AcDbEntity
  8
0
100
AcDbEllipse
 10
33.93760131072878
 20
-38.58149813870101
 30
0.0
 11
2.5
 21
-0.0000000000000001
 31
0.0
210
0.0
220
0.0
230
1.0
 40
0.5773502691896258
 41
5.497787143782133
 42
6.544984694978738
  0
LINE
  5
C1C
330
B3A
100
AcDbEntity
  8
0
100
AcDbLine
 10
37.47313521666151
 20
-40.62273959102038
 30
0.0
 11
35.70536826369514
 21
-39.60211886486071
 31
0.0
  0
SPLINE
  5
C1D
330
B3A
100
AcDbEntity
  8
0
100
AcDbSpline
210
0.0
220
0.0
230
1.0
 70
     8
 71
     3
 72
    10
 73
     6
 74
     0
 42
0.000000001
 43
0.0000000001
 40
0.0
 40
0.0
 40
0.0
 40
0.0
 40
0.0575824048806909
 40
0.0575824048806909
 40
0.0969870129599124
 40
0.0969870129599124
 40
0.0969870129599124
 40
0.0969870129599124
 10
37.47313521666152
 20
-35.95675320777376
 30
0.0
 10
37.58683835052363
 20
-36.10797495870452
 30
0.0
 10
37.90554574212311
 20
-36.50398519739486
 30
0.0
 10
38.46578882796766
 20
-37.28487396807065
 30
0.0
 10
38.6476160507212
 20
-37.57662137743905
 30
0.0
 10
38.76723044217412
 20
-37.83435191189433
 30
0.0
  0
LINE
  5
C1E
330
B3A
100
AcDbEntity
  8
0
100
AcDbLine
 10
36.28922745174167
 20
-36.64028267454596
 30
0.0
 11
37.47313521666152
 21
-35.9567532077738
 31
0.0
  0
LINE
  5
C1F
330
B3A
100
AcDbEntity
  8
0
100
AcDbLine
 10
35.70536826369514
 20
-36.97737393393345
 30
0.0
 11
36.28922745174167
 21
-36.64028267454596
 31
0.0
  0
SPLINE
  5
C20
330
B3A
100
AcDbEntity
  8
0
100
AcDbSpline
210
0.0
220
0.0
230
1.0
 70
     8
 71
     3
 72
    12
 73
     8
 74
     0
 42
0.000000001
 43
0.0000000001
 40
0.0
 40
0.0
 40
0.0
 40
0.0
 40
0.048393931568139
 40
0.048393931568139
 40
0.0973081656887726
 40
0.0973081656887726
 40
0.1727322110454438
 40
0.1727322110454438
 40
0.1727322110454438
 40
0.1727322110454438
 10
36.35241587645145
 20
-38.2079250252977
 30
0.0
 10
36.31066497261317
 20
-38.11796831762624
 30
0.0
 10
36.2544640977907
 20
-38.00945287000772
 30
0.0
 10
36.12079539137481
 20
-37.76254729046659
 30
0.0
 10
36.04544980796115
 20
-37.62780940615761
 30
0.0
 10
35.85001423610838
 20
-37.2691840760149
 30
0.0
 10
35.75282675849407
 20
-37.07633707430801
 30
0.0
 10
35.70536826369514
 20
-36.97737393393341
 30
0.0
  0
LINE
  5
C21
330
B3A
100
AcDbEntity
  8
0
100
AcDbLine
 10
35.70536826369514
 20
-39.60211886486073
 30
0.0
 11
35.70536826369514
 21
-36.97737393393345
 31
0.0
  0
LINE
  5
C22
330
B3A
100
AcDbEntity
  8
0
100
AcDbLine
 10
38.93760131072874
 20
2.186927797596958
 30
0.0
 11
38.93760131072874
 21
16.53202107392049
 31
0.0
  0
LINE
  5
C23
330
B3A
100
AcDbEntity
  8
0
100
AcDbLine
 10
38.93760131072874
 20
-50.82894685261691
 30
0.0
 11
38.93760131072874
 21
-38.58149813870096
 31
0.0
  0
ELLIPSE
  5
C24
330
B3A
100
AcDbEntity
  8
0
100
AcDbEllipse
 10
-31.46977594902687
 20
-2.859772723112961
 30
0.0
 11
2.624999999999727
 21
4.54663336986846
 31
0.0
210
0.0
220
0.0
230
0.9999999999999998
 40
0.5773502691896258
 41
3.604827272817605
 42
5.819950687950958
  0
ELLIPSE
  5
C25
330
B3A
100
AcDbEntity
  8
0
100
AcDbEllipse
 10
-31.46977594902687
 20
-27.35467015094473
 30
0.0
 11
2.624999999999727
 21
4.546633369868458
 31
0.0
210
0.0
220
0.0
230
1.0
 40
0.5773502691896258
 41
3.604827272817605
 42
5.819950687950958
  0
ELLIPSE
  5
C26
330
B3A
100
AcDbEntity
  8
0
100
AcDbEllipse
 10
-31.46977594902687
 20
-51.8495675787765
 30
0.0
 11
2.624999999999727
 21
4.546633369868458
 31
0.0
210
0.0
220
0.0
230
1.0
 40
0.5773502691896258
 41
3.604827272817605
 42
5.819950687950958
  0
ELLIPSE
  5
C27
330
B3A
100
AcDbEntity
  8
0
100
AcDbEllipse
 10
-31.46977594902687
 20
21.63512470471883
 30
0.0
 11
2.624999999999727
 21
4.54663336986846
 31
0.0
210
0.0
220
0.0
230
0.9999999999999998
 40
0.5773502691896258
 41
3.604827272817605
 42
5.819950687950958
  0
ELLIPSE
  5
C28
330
B3A
100
AcDbEntity
  8
0
100
AcDbEllipse
 10
-31.46977594902687
 20
-76.34446500660828
 30
0.0
 11
2.624999999999727
 21
4.546633369868458
 31
0.0
210
0.0
220
0.0
230
1.0
 40
0.5773502691896258
 41
3.604827272817605
 42
5.819950687950958
  0
ENDBLK
  5
B3C
330
B3A
100
AcDbEntity
  8
0
100
AcDbBlockEnd
  0
ENDSEC
  0
SECTION
  2
ENTITIES
  0
INSERT
  5
C29
330
1F
100
AcDbEntity
  8
0
100
AcDbBlockReference
  2
CBH180-Front
 10
0.0
 20
0.0
 30
0.0
  0
INSERT
  5
C2A
330
1F
100
AcDbEntity
  8
0
100
AcDbBlockReference
  2
CBH180-Left
 10
84.00637218548521
 20
0.0
 30
0.0
  0
INSERT
  5
C2B
330
1F
100
AcDbEntity
  8
0
100
AcDbBlockReference
  2
CBH180-Right
 10
-84.0058302025872
 20
0.0
 30
0.0
  0
INSERT
  5
C2C
330
1F
100
AcDbEntity
  8
0
100
AcDbBlockReference
  2
CBH180-Top
 10
0.0
 20
-234.0000000000001
 30
0.0
  0
INSERT
  5
C2D
330
1F
100
AcDbEntity
  8
0
100
AcDbBlockReference
  2
CBH180-Bottom
 10
0.0
 20
54.00000000000003
 30
0.0
  0
INSERT
  5
C2E
330
1F
100
AcDbEntity
  8
0
100
AcDbBlockReference
  2
CBH180-ISO
 10
125.0157174950453
 20
-329.965326881843
 30
0.0
  0
MTEXT
  5
C2F
330
1F
100
AcDbEntity
  8
0
100
AcDbMText
 10
0.0
 20
-401.5000000000001
 30
0.0
 40
10.50000000000001
 41
0.0
 71
     5
 72
     5
  1
CBH180/2.5S
 73
     1
 44
1.0
1001
ACAD
1000
MTEXTBEGIN
1070
    73
1070
     1
1070
    44
1040
1.0
1070
    74
1070
     0
1000
MTEXTEND
  0
ENDSEC
  0
SECTION
  2
OBJECTS
  0
DICTIONARY
  5
C
330
0
100
AcDbDictionary
281
     1
  3
ACAD_CIP_PREVIOUS_PRODUCT_INFO
350
216
  3
ACAD_COLOR
350
6B
  3
ACAD_DETAILVIEWSTYLE
350
21B
  3
ACAD_GROUP
350
D
  3
ACAD_LAYOUT
350
1A
  3
ACAD_MATERIAL
350
6A
  3
ACAD_MLEADERSTYLE
350
12D
  3
ACAD_MLINESTYLE
350
17
  3
ACAD_PLOTSETTINGS
350
19
  3
ACAD_PLOTSTYLENAME
350
E
  3
ACAD_SCALELIST
350
10C
  3
ACAD_SECTIONVIEWSTYLE
350
219
  3
ACAD_TABLESTYLE
350
7E
  3
ACAD_VISUALSTYLE
350
EF
  3
ACDB_RECOMPOSE_DATA
350
D30
  3
AcDbVariableDictionary
350
5E
  3
DWGPROPS
350
D31
  0
DICTIONARY
  5
C80
330
8
100
AcDbDictionary
280
     1
281
     1
  0
DICTIONARY
  5
1FF
330
2
100
AcDbDictionary
280
     1
281
     1
  3
ACAD_LAYERSTATES
360
200
  0
DICTIONARY
  5
13C
330
10
100
AcDbDictionary
280
     1
281
     1
  0
DICTIONARY
  5
1CE
330
1F
100
AcDbDictionary
280
     1
281
     1
  3
ACAD_LAYOUTSELFREF
360
C88
  0
DICTIONARY
  5
C33
330
D2
100
AcDbDictionary
280
     1
281
     1
  3
ACAD_LAYOUTSELFREF
360
C91
  0
DICTIONARY
  5
C35
330
D6
100
AcDbDictionary
280
     1
281
     1
  3
ACAD_LAYOUTSELFREF
360
C94
  0
XRECORD
  5
216
102
{ACAD_REACTORS
330
C
102
}
330
C
100
AcDbXrecord
280
     1
300
ACD
300
2021
300

  0
DICTIONARY
  5
6B
102
{ACAD_REACTORS
330
C
102
}
330
C
100
AcDbDictionary
281
     1
  0
DICTIONARY
  5
21B
102
{ACAD_REACTORS
330
C
102
}
330
C
100
AcDbDictionary
281
     1
  3
Metric50
350
21C
  0
DICTIONARY
  5
D
102
{ACAD_REACTORS
330
C
102
}
330
C
100
AcDbDictionary
281
     1
  0
DICTIONARY
  5
1A
102
{ACAD_REACTORS
330
C
102
}
330
C
100
AcDbDictionary
281
     1
  3
Layout1
350
D3
  3
Layout2
350
D7
  3
Model
350
22
  0
DICTIONARY
  5
6A
102
{ACAD_REACTORS
330
C
102
}
330
C
100
AcDbDictionary
281
     1
  3
ByBlock
350
ED
  3
ByLayer
350
EC
  3
Global
350
EE
  0
DICTIONARY
  5
12D
102
{ACAD_REACTORS
330
C
102
}
330
C
100
AcDbDictionary
281
     1
  3
Standard
350
12E
  0
DICTIONARY
  5
17
102
{ACAD_REACTORS
330
C
102
}
330
C
100
AcDbDictionary
281
     1
  3
Standard
350
18
  0
DICTIONARY
  5
19
102
{ACAD_REACTORS
330
C
102
}
330
C
100
AcDbDictionary
281
     1
  0
ACDBDICTIONARYWDFLT
  5
E
102
{ACAD_REACTORS
330
C
102
}
330
C
100
AcDbDictionary
281
     1
  3
Normal
350
F
100
AcDbDictionaryWithDefault
340
F
  0
DICTIONARY
  5
10C
102
{ACAD_REACTORS
330
C
102
}
330
C
100
AcDbDictionary
281
     1
  3
A0
350
10D
  3
A1
350
1BE
  3
A2
350
1BF
  3
A3
350
1C0
  3
A4
350
1C1
  3
A5
350
1C2
  3
A6
350
1C3
  3
A7
350
1C4
  3
A8
350
1C5
  3
A9
350
1C6
  3
B0
350
1C7
  3
B1
350
1C8
  3
B2
350
1C9
  3
B3
350
1CA
  3
B4
350
1CB
  3
B5
350
1CC
  3
B6
350
1CD
  0
DICTIONARY
  5
219
102
{ACAD_REACTORS
330
C
102
}
330
C
100
AcDbDictionary
281
     1
  3
Metric50
350
21A
  0
DICTIONARY
  5
7E
102
{ACAD_REACTORS
330
C
102
}
330
C
100
AcDbDictionary
281
     1
  3
Standard
350
7F
  0
DICTIONARY
  5
EF
102
{ACAD_REACTORS
330
C
102
}
330
C
100
AcDbDictionary
281
     1
  3
2dWireframe
350
F5
  3
Basic
350
F4
  3
Brighten
350
FB
  3
ColorChange
350
FF
  3
Conceptual
350
F8
  3
Dim
350
FA
  3
EdgeColorOff
350
1E6
  3
Facepattern
350
FE
  3
Flat
350
F0
  3
FlatWithEdges
350
F1
  3
Gouraud
350
F2
  3
GouraudWithEdges
350
F3
  3
Hidden
350
F7
  3
JitterOff
350
1E4
  3
Linepattern
350
FD
  3
OverhangOff
350
1E5
  3
Realistic
350
F9
  3
Shaded
350
1F3
  3
Shaded with edges
350
1F2
  3
Shades of Gray
350
1EF
  3
Sketchy
350
1F0
  3
Thicken
350
FC
  3
Wireframe
350
F6
  3
X-Ray
350
1F1
  0
XRECORD
  5
D30
102
{ACAD_REACTORS
330
C
102
}
330
C
100
AcDbXrecord
280
     1
 90
        1
330
7F
  0
DICTIONARY
  5
5E
102
{ACAD_REACTORS
330
C
102
}
330
C
100
AcDbDictionary
281
     1
  3
CANNOSCALE
350
146
  3
CENTEREXE
350
259
  3
CENTERLTYPEFILE
350
25A
  3
CMLEADERSTYLE
350
145
  3
CTABLESTYLE
350
84
  3
CVIEWDETAILSTYLE
350
227
  3
CVIEWSECTIONSTYLE
350
228
  3
DIMASSOC
350
5F
  3
HIDETEXT
350
63
  3
INDEXCTL
350
CDD
  3
LAYEREVAL
350
1AE
  3
LAYERNOTIFY
350
1AF
  3
LIGHTINGUNITS
350
CDB
  3
MSLTSCALE
350
CDA
  3
PSOLHEIGHT
350
D2D
  3
PSOLWIDTH
350
D2C
  3
SORTENTS
350
CDC
  3
XCLIPFRAME
350
D2E
  0
XRECORD
  5
D31
102
{ACAD_REACTORS
330
C
102
}
330
C
100
AcDbXrecord
280
     1
  1
DWGPROPS COOKIE
  2

  3

  4

  6

  7

  8
tronnguyen
  9

300
=
301
=
302
=
303
=
304
=
305
=
306
=
307
=
308
=
309
=
 40
0.0033680555555556
 41
2460286.6225
 42
2460286.631608796
  1

 90
        0
  0
DICTIONARY
  5
200
102
{ACAD_REACTORS
330
1FF
102
}
330
1FF
100
AcDbDictionary
281
     1
  0
XRECORD
  5
C88
102
{ACAD_REACTORS
330
1CE
102
}
330
1CE
100
AcDbXrecord
280
     1
340
1F
  0
XRECORD
  5
C91
102
{ACAD_REACTORS
330
C33
102
}
330
C33
100
AcDbXrecord
280
     1
340
D2
  0
XRECORD
  5
C94
102
{ACAD_REACTORS
330
C35
102
}
330
C35
100
AcDbXrecord
280
     1
340
D6
  0
ACDBDETAILVIEWSTYLE
  5
21C
102
{ACAD_XDICTIONARY
360
D70
102
}
102
{ACAD_REACTORS
330
21B
102
}
330
21B
100
AcDbModelDocViewStyle
 70
     0
  3
Metric50
290
     0
100
AcDbDetailViewStyle
 70
     0
 71
     0
 90
        3
 71
     1
340
11
 40
5.0
340
0
 40
5.0
300

 40
0.0
280
     1
 71
     2
340
16
 90
       25
 71
     3
340
11
 40
5.0
 90
        0
 40
15.0
 90
        1
300
%<\AcVar ViewDetailId>% (%<\AcVar ViewScale \f "%sn">%)
 71
     4
340
16
 90
       25
340
16
 90
       25
280
     0
  0
LAYOUT
  5
D3
102
{ACAD_XDICTIONARY
360
D35
102
}
102
{ACAD_REACTORS
330
1A
102
}
330
1A
100
AcDbPlotSettings
  1

  2
C:\Documents and Settings\basas\Application Data\Autodesk\AutoCAD 2005\R16.1\enu\plotters\Default Windows System Printer.pc3
  4

  6

 40
0.0
 41
0.0
 42
0.0
 43
0.0
 44
0.0
 45
0.0
 46
0.0
 47
0.0
 48
0.0
 49
0.0
140
0.0
141
0.0
142
1.0
143
1.0
 70
   688
 72
     0
 73
     0
 74
     5
  7

 75
    16
147
1.0
148
0.0
149
0.0
100
AcDbLayout
  1
Layout1
 70
     1
 71
     1
 10
0.0
 20
0.0
 11
12.0
 21
9.0
 12
0.0
 22
0.0
 32
0.0
 14
0.0
 24
0.0
 34
0.0
 15
0.0
 25
0.0
 35
0.0
146
0.0
 13
0.0
 23
0.0
 33
0.0
 16
1.0
 26
0.0
 36
0.0
 17
0.0
 27
1.0
 37
0.0
 76
     0
330
D2
  0
LAYOUT
  5
D7
102
{ACAD_XDICTIONARY
360
D37
102
}
102
{ACAD_REACTORS
330
1A
102
}
330
1A
100
AcDbPlotSettings
  1

  2
C:\Documents and Settings\basas\Application Data\Autodesk\AutoCAD 2005\R16.1\enu\plotters\Default Windows System Printer.pc3
  4

  6

 40
0.0
 41
0.0
 42
0.0
 43
0.0
 44
0.0
 45
0.0
 46
0.0
 47
0.0
 48
0.0
 49
0.0
140
0.0
141
0.0
142
1.0
143
1.0
 70
   688
 72
     0
 73
     0
 74
     5
  7

 75
    16
147
1.0
148
0.0
149
0.0
100
AcDbLayout
  1
Layout2
 70
     1
 71
     2
 10
0.0
 20
0.0
 11
12.0
 21
9.0
 12
0.0
 22
0.0
 32
0.0
 14
0.0
 24
0.0
 34
0.0
 15
0.0
 25
0.0
 35
0.0
146
0.0
 13
0.0
 23
0.0
 33
0.0
 16
1.0
 26
0.0
 36
0.0
 17
0.0
 27
1.0
 37
0.0
 76
     0
330
D6
  0
LAYOUT
  5
22
102
{ACAD_XDICTIONARY
360
D32
102
}
102
{ACAD_REACTORS
330
1A
102
}
330
1A
100
AcDbPlotSettings
  1

  2
none_device
  4
ISO_A4_(210.00_x_297.00_MM)
  6

 40
7.5
 41
20.0
 42
7.5
 43
20.0
 44
210.0
 45
297.0
 46
11.54999923706054
 47
-13.65000009536743
 48
0.0
 49
0.0
140
0.0
141
0.0
142
1.0
143
8.704084754739808
 70
 11952
 72
     1
 73
     0
 74
     0
  7

 75
     0
147
0.1148885871608098
148
0.0
149
0.0
100
AcDbLayout
  1
Model
 70
     1
 71
     0
 10
0.0
 20
0.0
 11
12.0
 21
9.0
 12
0.0
 22
0.0
 32
0.0
 14
0.0
 24
0.0
 34
0.0
 15
0.0
 25
0.0
 35
0.0
146
0.0
 13
0.0
 23
0.0
 33
0.0
 16
1.0
 26
0.0
 36
0.0
 17
0.0
 27
1.0
 37
0.0
 76
     0
330
1F
331
EA
1001
ACAD_PSEXT
1000
None
1000
None
1000
Not applicable
1000
The layout will not be plotted unless a new plotter configuration name is selected.
1070
     0
  0
MATERIAL
  5
ED
102
{ACAD_XDICTIONARY
360
1F9
102
}
102
{ACAD_REACTORS
330
6A
102
}
330
6A
100
AcDbMaterial
  1
ByBlock
  0
MATERIAL
  5
EC
102
{ACAD_XDICTIONARY
360
1F7
102
}
102
{ACAD_REACTORS
330
6A
102
}
330
6A
100
AcDbMaterial
  1
ByLayer
  0
MATERIAL
  5
EE
102
{ACAD_XDICTIONARY
360
173
102
}
102
{ACAD_REACTORS
330
6A
102
}
330
6A
100
AcDbMaterial
  1
Global
 43
0.0007999999797903
 43
0.0
 43
0.0
 43
0.0
 43
0.0
 43
0.0007999999797903
 43
0.0
 43
0.0
 43
0.0
 43
0.0
 43
1.0
 43
0.0
 43
0.0
 43
0.0
 43
0.0
 43
1.0
 49
0.0007999999797903
 49
0.0
 49
0.0
 49
0.0
 49
0.0
 49
0.0007999999797903
 49
0.0
 49
0.0
 49
0.0
 49
0.0
 49
1.0
 49
0.0
 49
0.0
 49
0.0
 49
0.0
 49
1.0
142
0.0007999999797903
142
0.0
142
0.0
142
0.0
142
0.0
142
0.0007999999797903
142
0.0
142
0.0
142
0.0
142
0.0
142
1.0
142
0.0
142
0.0
142
0.0
142
0.0
142
1.0
144
0.0007999999797903
144
0.0
144
0.0
144
0.0
144
0.0
144
0.0007999999797903
144
0.0
144
0.0
144
0.0
144
0.0
144
1.0
144
0.0
144
0.0
144
0.0
144
0.0
144
1.0
1001
ACAD
1070
    -1
1070
     3
1070
     0
1000

1071
        0
1070
     0
  0
MLEADERSTYLE
  5
12E
102
{ACAD_XDICTIONARY
360
D5C
102
}
102
{ACAD_REACTORS
330
12D
102
}
330
12D
100
AcDbMLeaderStyle
170
     2
171
     1
172
     0
 90
        2
 40
0.0
 41
0.0
173
     1
 91
-1056964608
340
14
 92
       -2
290
     1
 42
2.0
291
     1
 43
8.0
  3
Standard
 44
4.0
300

342
11
174
     1
178
     1
175
     1
176
     0
 93
-1056964608
 45
4.0
292
     0
297
     0
 46
4.0
 94
-1056964608
 47
1.0
 49
1.0
140
1.0
293
     1
141
0.0
294
     1
177
     0
142
1.0
295
     0
296
     0
143
3.75
1001
ACAD_MLEADERVER
1070
     2
  0
MLINESTYLE
  5
18
102
{ACAD_REACTORS
330
17
102
}
330
17
100
AcDbMlineStyle
  2
STANDARD
 70
     0
  3

 62
   256
 51
90.0
 52
90.0
 71
     2
 49
0.5
 62
   256
  6
BYLAYER
 49
-0.5
 62
   256
  6
BYLAYER
  0
ACDBPLACEHOLDER
  5
F
102
{ACAD_REACTORS
330
E
102
}
330
E
  0
SCALE
  5
10D
102
{ACAD_REACTORS
330
10C
102
}
330
10C
100
AcDbScale
 70
     0
300
1:1
140
1.0
141
1.0
290
     1
  0
SCALE
  5
1BE
102
{ACAD_REACTORS
330
10C
102
}
330
10C
100
AcDbScale
 70
     0
300
1:2
140
1.0
141
2.0
290
     0
  0
SCALE
  5
1BF
102
{ACAD_REACTORS
330
10C
102
}
330
10C
100
AcDbScale
 70
     0
300
1:4
140
1.0
141
4.0
290
     0
  0
SCALE
  5
1C0
102
{ACAD_REACTORS
330
10C
102
}
330
10C
100
AcDbScale
 70
     0
300
1:5
140
1.0
141
5.0
290
     0
  0
SCALE
  5
1C1
102
{ACAD_REACTORS
330
10C
102
}
330
10C
100
AcDbScale
 70
     0
300
1:8
140
1.0
141
8.0
290
     0
  0
SCALE
  5
1C2
102
{ACAD_REACTORS
330
10C
102
}
330
10C
100
AcDbScale
 70
     0
300
1:10
140
1.0
141
10.0
290
     0
  0
SCALE
  5
1C3
102
{ACAD_REACTORS
330
10C
102
}
330
10C
100
AcDbScale
 70
     0
300
1:16
140
1.0
141
16.0
290
     0
  0
SCALE
  5
1C4
102
{ACAD_REACTORS
330
10C
102
}
330
10C
100
AcDbScale
 70
     0
300
1:20
140
1.0
141
20.0
290
     0
  0
SCALE
  5
1C5
102
{ACAD_REACTORS
330
10C
102
}
330
10C
100
AcDbScale
 70
     0
300
1:30
140
1.0
141
30.0
290
     0
  0
SCALE
  5
1C6
102
{ACAD_REACTORS
330
10C
102
}
330
10C
100
AcDbScale
 70
     0
300
1:40
140
1.0
141
40.0
290
     0
  0
SCALE
  5
1C7
102
{ACAD_REACTORS
330
10C
102
}
330
10C
100
AcDbScale
 70
     0
300
1:50
140
1.0
141
50.0
290
     0
  0
SCALE
  5
1C8
102
{ACAD_REACTORS
330
10C
102
}
330
10C
100
AcDbScale
 70
     0
300
1:100
140
1.0
141
100.0
290
     0
  0
SCALE
  5
1C9
102
{ACAD_REACTORS
330
10C
102
}
330
10C
100
AcDbScale
 70
     0
300
2:1
140
2.0
141
1.0
290
     0
  0
SCALE
  5
1CA
102
{ACAD_REACTORS
330
10C
102
}
330
10C
100
AcDbScale
 70
     0
300
4:1
140
4.0
141
1.0
290
     0
  0
SCALE
  5
1CB
102
{ACAD_REACTORS
330
10C
102
}
330
10C
100
AcDbScale
 70
     0
300
8:1
140
8.0
141
1.0
290
     0
  0
SCALE
  5
1CC
102
{ACAD_REACTORS
330
10C
102
}
330
10C
100
AcDbScale
 70
     0
300
10:1
140
10.0
141
1.0
290
     0
  0
SCALE
  5
1CD
102
{ACAD_REACTORS
330
10C
102
}
330
10C
100
AcDbScale
 70
     0
300
100:1
140
100.0
141
1.0
290
     0
  0
ACDBSECTIONVIEWSTYLE
  5
21A
102
{ACAD_XDICTIONARY
360
D6E
102
}
102
{ACAD_REACTORS
330
219
102
}
330
219
100
AcDbModelDocViewStyle
 70
     0
  3
Metric50
290
     0
100
AcDbSectionViewStyle
 70
     0
 71
     0
 90
      102
 71
     1
340
11
 40
5.0
340
0
340
0
 40
5.0
300
I, O, Q, S, X, Z
 40
10.0
 90
        0
 40
2.5
 90
        0
 71
     2
340
16
 90
       25
340
16
 90
       50
 40
5.0
 40
2.5
 40
5.0
 71
     3
340
11
 40
5.0
 90
        0
 40
15.0
 90
        1
300
%<\AcVar ViewSectionStartId>%-%<\AcVar ViewSectionEndId>% (%<\AcVar ViewScale \f "%sn">%)
 71
     4
300
ANSI31
 40
1.0
 90
        0
290
     0
290
     0
 90
        6
 40
0.0
 40
1.570796326794896
 40
0.2617993877991494
 40
1.308996938995747
 40
-0.2617993877991494
 40
1.832595714594046
  0
TABLESTYLE
  5
7F
102
{ACAD_XDICTIONARY
360
162
102
}
102
{ACAD_REACTORS
330
7E
102
}
330
7E
100
AcDbTableStyle
  3
Standard
 70
     0
 71
     0
 40
1.5
 41
1.5
280
     0
281
     0
  7
Standard
140
4.5
170
     2
 62
     0
 63
     7
283
     0
274
    -2
284
     1
 64
     0
275
    -2
285
     1
 65
     0
276
    -2
286
     1
 66
     0
277
    -2
287
     1
 67
     0
278
    -2
288
     1
 68
     0
279
    -2
289
     1
 69
     0
  7
Standard
140
6.0
170
     5
 62
     0
 63
     7
283
     0
274
    -2
284
     1
 64
     0
275
    -2
285
     1
 65
     0
276
    -2
286
     1
 66
     0
277
    -2
287
     1
 67
     0
278
    -2
288
     1
 68
     0
279
    -2
289
     1
 69
     0
  7
Standard
140
4.5
170
     5
 62
     0
 63
     7
283
     0
274
    -2
284
     1
 64
     0
275
    -2
285
     1
 65
     0
276
    -2
286
     1
 66
     0
277
    -2
287
     1
 67
     0
278
    -2
288
     1
 68
     0
279
    -2
289
     1
 69
     0
  0
VISUALSTYLE
  5
F5
102
{ACAD_XDICTIONARY
360
D46
102
}
102
{ACAD_REACTORS
330
EF
102
}
330
EF
100
AcDbVisualStyle
  2
2dWireframe
 70
     4
 71
     0
 72
     2
 73
     1
 90
        0
 40
-0.6
 41
-30.0
 62
     5
 63
     7
 74
     1
 91
        4
 64
     7
 65
   257
 75
     1
175
     1
 42
1.0
 92
        0
 66
   257
 43
1.0
 76
     1
 77
     6
 78
     2
 67
     7
 79
     5
170
     0
171
     0
290
     0
174
     0
 93
        1
 44
0.0
173
     0
291
     0
 45
0.0
1001
ACAD
1000
AcDbSavedByObjectVersion
1070
     0
  0
VISUALSTYLE
  5
F4
102
{ACAD_XDICTIONARY
360
D44
102
}
102
{ACAD_REACTORS
330
EF
102
}
330
EF
100
AcDbVisualStyle
  2
Basic
 70
     7
 71
     1
 72
     0
 73
     1
 90
        0
 40
-0.6
 41
-30.0
 62
     5
 63
     7
 74
     0
 91
        4
 64
     7
 65
   257
 75
     1
175
     1
 42
1.0
 92
        8
 66
     7
 43
1.0
 76
     1
 77
     6
 78
     2
 67
     7
 79
     5
170
     0
171
     0
290
     0
174
     0
 93
        1
 44
0.0
173
     0
291
     1
 45
0.0
1001
ACAD
1000
AcDbSavedByObjectVersion
1070
     0
  0
VISUALSTYLE
  5
FB
102
{ACAD_XDICTIONARY
360
D52
102
}
102
{ACAD_REACTORS
330
EF
102
}
330
EF
100
AcDbVisualStyle
  2
Brighten
 70
    12
 71
     2
 72
     2
 73
     1
 90
        0
 40
-0.6
 41
-30.0
 62
     5
 63
     7
 74
     1
 91
        4
 64
     7
 65
   257
 75
     1
175
     1
 42
1.0
 92
        8
 66
     7
 43
1.0
 76
     1
 77
     6
 78
     2
 67
     7
 79
     5
170
     0
171
     0
290
     0
174
     0
 93
        1
 44
50.0
173
     0
291
     1
 45
0.0
1001
ACAD
1000
AcDbSavedByObjectVersion
1070
     0
  0
VISUALSTYLE
  5
FF
102
{ACAD_XDICTIONARY
360
D5A
102
}
102
{ACAD_REACTORS
330
EF
102
}
330
EF
100
AcDbVisualStyle
  2
ColorChange
 70
    16
 71
     2
 72
     2
 73
     3
 90
        0
 40
-0.6
 41
-30.0
 62
     5
 63
     8
 74
     1
 91
        4
 64
     7
 65
   257
 75
     1
175
     1
 42
1.0
 92
        8
 66
     8
 43
1.0
 76
     1
 77
     6
 78
     2
 67
     7
 79
     5
170
     0
171
     0
290
     0
174
     0
 93
        1
 44
0.0
173
     0
291
     1
 45
0.0
1001
ACAD
1000
AcDbSavedByObjectVersion
1070
     0
  0
VISUALSTYLE
  5
F8
102
{ACAD_XDICTIONARY
360
D4C
102
}
102
{ACAD_REACTORS
330
EF
102
}
330
EF
100
AcDbVisualStyle
  2
Conceptual
 70
     9
 71
     3
 72
     2
 73
     1
 90
        0
 40
-0.6
 41
-30.0
 62
     5
 63
     7
 74
     2
 91
        2
 64
     7
 65
   257
 75
     1
175
     1
 42
40.0
 92
        8
 66
     7
 43
1.0
 76
     1
 77
     6
 78
     2
 67
     7
 79
     3
170
     0
171
     0
290
     0
174
     0
 93
        1
 44
0.0
173
     0
291
     0
 45
0.0
1001
ACAD
1000
AcDbSavedByObjectVersion
1070
     0
  0
VISUALSTYLE
  5
FA
102
{ACAD_XDICTIONARY
360
D50
102
}
102
{ACAD_REACTORS
330
EF
102
}
330
EF
100
AcDbVisualStyle
  2
Dim
 70
    11
 71
     2
 72
     2
 73
     1
 90
        0
 40
-0.6
 41
-30.0
 62
     5
 63
     7
 74
     1
 91
        4
 64
     7
 65
   257
 75
     1
175
     1
 42
1.0
 92
        8
 66
     7
 43
1.0
 76
     1
 77
     6
 78
     2
 67
     7
 79
     5
170
     0
171
     0
290
     0
174
     0
 93
        1
 44
-50.0
173
     0
291
     1
 45
0.0
1001
ACAD
1000
AcDbSavedByObjectVersion
1070
     0
  0
VISUALSTYLE
  5
1E6
102
{ACAD_XDICTIONARY
360
D62
102
}
102
{ACAD_REACTORS
330
EF
102
}
330
EF
100
AcDbVisualStyle
  2
EdgeColorOff
 70
    22
 71
     2
 72
     2
 73
     0
 90
        0
 40
-0.6
 41
-30.0
 62
     5
 63
     7
 74
     1
 91
        4
 64
     7
 65
   257
 75
     1
175
     1
 42
1.0
 92
        8
 66
     7
 43
1.0
 76
     1
 77
     6
 78
     2
 67
     7
 79
     5
170
     0
171
     0
290
     0
174
     0
 93
        1
 44
0.0
173
     0
291
     1
 45
0.0
1001
ACAD
1000
AcDbSavedByObjectVersion
1070
     0
  0
VISUALSTYLE
  5
FE
102
{ACAD_XDICTIONARY
360
D58
102
}
102
{ACAD_REACTORS
330
EF
102
}
330
EF
100
AcDbVisualStyle
  2
Facepattern
 70
    15
 71
     2
 72
     2
 73
     1
 90
        0
 40
-0.6
 41
-30.0
 62
     5
 63
     7
 74
     1
 91
        4
 64
     7
 65
   257
 75
     1
175
     1
 42
1.0
 92
        8
 66
     7
 43
1.0
 76
     1
 77
     6
 78
     2
 67
     7
 79
     5
170
     0
171
     0
290
     0
174
     0
 93
        1
 44
0.0
173
     0
291
     1
 45
0.0
1001
ACAD
1000
AcDbSavedByObjectVersion
1070
     0
  0
VISUALSTYLE
  5
F0
102
{ACAD_XDICTIONARY
360
D3C
102
}
102
{ACAD_REACTORS
330
EF
102
}
330
EF
100
AcDbVisualStyle
  2
Flat
 70
     0
 71
     2
 72
     1
 73
     1
 90
        2
 40
-0.6
 41
30.0
 62
     5
 63
     7
 74
     0
 91
        0
 64
     7
 65
   257
 75
     1
175
     1
 42
1.0
 92
        8
 66
     7
 43
1.0
 76
     1
 77
     6
 78
     2
 67
     7
 79
     5
170
     0
171
     0
290
     0
174
     0
 93
       13
 44
0.0
173
     0
291
     1
 45
0.0
1001
ACAD
1000
AcDbSavedByObjectVersion
1070
     0
  0
VISUALSTYLE
  5
F1
102
{ACAD_XDICTIONARY
360
D3E
102
}
102
{ACAD_REACTORS
330
EF
102
}
330
EF
100
AcDbVisualStyle
  2
FlatWithEdges
 70
     1
 71
     2
 72
     1
 73
     1
 90
        2
 40
-0.6
 41
30.0
 62
     5
 63
     7
 74
     1
 91
        0
 64
     7
 65
   257
 75
     1
175
     1
 42
1.0
 92
        0
 66
   257
 43
1.0
 76
     1
 77
     6
 78
     2
 67
     7
 79
     5
170
     0
171
     0
290
     0
174
     0
 93
       13
 44
0.0
173
     0
291
     1
 45
0.0
1001
ACAD
1000
AcDbSavedByObjectVersion
1070
     0
  0
VISUALSTYLE
  5
F2
102
{ACAD_XDICTIONARY
360
D40
102
}
102
{ACAD_REACTORS
330
EF
102
}
330
EF
100
AcDbVisualStyle
  2
Gouraud
 70
     2
 71
     2
 72
     2
 73
     1
 90
        2
 40
-0.6
 41
30.0
 62
     5
 63
     7
 74
     0
 91
        0
 64
     7
 65
   257
 75
     1
175
     1
 42
1.0
 92
        0
 66
     7
 43
1.0
 76
     1
 77
     6
 78
     2
 67
     7
 79
     5
170
     0
171
     0
290
     0
174
     0
 93
       13
 44
0.0
173
     0
291
     1
 45
0.0
1001
ACAD
1000
AcDbSavedByObjectVersion
1070
     0
  0
VISUALSTYLE
  5
F3
102
{ACAD_XDICTIONARY
360
D42
102
}
102
{ACAD_REACTORS
330
EF
102
}
330
EF
100
AcDbVisualStyle
  2
GouraudWithEdges
 70
     3
 71
     2
 72
     2
 73
     1
 90
        2
 40
-0.6
 41
30.0
 62
     5
 63
     7
 74
     1
 91
        0
 64
     7
 65
   257
 75
     1
175
     1
 42
1.0
 92
        0
 66
   257
 43
1.0
 76
     1
 77
     6
 78
     2
 67
     7
 79
     5
170
     0
171
     0
290
     0
174
     0
 93
       13
 44
0.0
173
     0
291
     1
 45
0.0
1001
ACAD
1000
AcDbSavedByObjectVersion
1070
     0
  0
VISUALSTYLE
  5
F7
102
{ACAD_XDICTIONARY
360
D4A
102
}
102
{ACAD_REACTORS
330
EF
102
}
330
EF
100
AcDbVisualStyle
  2
Hidden
 70
     6
 71
     1
 72
     2
 73
     2
 90
        0
 40
-0.6
 41
-30.0
 62
     5
 63
     7
 74
     2
 91
        2
 64
     7
 65
   257
 75
     2
175
     1
 42
40.0
 92
        0
 66
   257
 43
1.0
 76
     1
 77
     6
 78
     2
 67
     7
 79
     3
170
     0
171
     0
290
     0
174
     0
 93
        1
 44
0.0
173
     0
291
     0
 45
0.0
1001
ACAD
1000
AcDbSavedByObjectVersion
1070
     0
  0
VISUALSTYLE
  5
1E4
102
{ACAD_XDICTIONARY
360
D5E
102
}
102
{ACAD_REACTORS
330
EF
102
}
330
EF
100
AcDbVisualStyle
  2
JitterOff
 70
    20
 71
     2
 72
     2
 73
     0
 90
        0
 40
-0.6
 41
-30.0
 62
     5
 63
     7
 74
     1
 91
        4
 64
     7
 65
   257
 75
     1
175
     1
 42
1.0
 92
       10
 66
     7
 43
1.0
 76
     1
 77
     6
 78
     2
 67
     7
 79
     5
170
     0
171
     0
290
     0
174
     0
 93
        1
 44
0.0
173
     0
291
     1
 45
0.0
1001
ACAD
1000
AcDbSavedByObjectVersion
1070
     0
  0
VISUALSTYLE
  5
FD
102
{ACAD_XDICTIONARY
360
D56
102
}
102
{ACAD_REACTORS
330
EF
102
}
330
EF
100
AcDbVisualStyle
  2
Linepattern
 70
    14
 71
     2
 72
     2
 73
     1
 90
        0
 40
-0.6
 41
-30.0
 62
     5
 63
     7
 74
     1
 91
        4
 64
     7
 65
   257
 75
     7
175
     7
 42
1.0
 92
        8
 66
     7
 43
1.0
 76
     1
 77
     6
 78
     2
 67
     7
 79
     5
170
     0
171
     0
290
     0
174
     0
 93
        1
 44
0.0
173
     0
291
     1
 45
0.0
1001
ACAD
1000
AcDbSavedByObjectVersion
1070
     0
  0
VISUALSTYLE
  5
1E5
102
{ACAD_XDICTIONARY
360
D60
102
}
102
{ACAD_REACTORS
330
EF
102
}
330
EF
100
AcDbVisualStyle
  2
OverhangOff
 70
    21
 71
     2
 72
     2
 73
     0
 90
        0
 40
-0.6
 41
-30.0
 62
     5
 63
     7
 74
     1
 91
        4
 64
     7
 65
   257
 75
     1
175
     1
 42
1.0
 92
        9
 66
     7
 43
1.0
 76
     1
 77
     6
 78
     2
 67
     7
 79
     5
170
     0
171
     0
290
     0
174
     0
 93
        1
 44
0.0
173
     0
291
     1
 45
0.0
1001
ACAD
1000
AcDbSavedByObjectVersion
1070
     0
  0
VISUALSTYLE
  5
F9
102
{ACAD_XDICTIONARY
360
D4E
102
}
102
{ACAD_REACTORS
330
EF
102
}
330
EF
100
AcDbVisualStyle
  2
Realistic
 70
     8
 71
     2
 72
     2
 73
     0
 90
        2
 40
-0.6
 41
30.0
 62
     5
 63
     7
 74
     0
 91
        0
 64
     7
 65
   257
 75
     1
175
     1
 42
1.0
 92
        8
 66
   257
 43
1.0
 76
     1
 77
     6
 78
     2
 67
     7
 79
     3
170
     0
171
     0
290
     0
174
     0
 93
       13
 44
0.0
173
     0
291
     0
 45
0.0
1001
ACAD
1000
AcDbSavedByObjectVersion
1070
     0
  0
VISUALSTYLE
  5
1F3
102
{ACAD_XDICTIONARY
360
D6C
102
}
102
{ACAD_REACTORS
330
EF
102
}
330
EF
100
AcDbVisualStyle
  2
Shaded
 70
    27
 71
     2
 72
     2
 73
     1
 90
        2
 40
-0.6
 41
30.0
 62
     5
 63
     7
 74
     0
 91
        4
 64
     7
 65
   257
 75
     1
175
     1
 42
1.0
 92
        8
 66
   257
 43
1.0
 76
     1
 77
     6
 78
     2
 67
     8
 79
     3
170
     0
171
     0
290
     0
174
     0
 93
        5
 44
0.0
173
     0
291
     0
 45
0.0
1001
ACAD
1000
AcDbSavedByObjectVersion
1070
     0
  0
VISUALSTYLE
  5
1F2
102
{ACAD_XDICTIONARY
360
D6A
102
}
102
{ACAD_REACTORS
330
EF
102
}
330
EF
100
AcDbVisualStyle
  2
Shaded with edges
 70
    26
 71
     2
 72
     2
 73
     1
 90
        2
 40
-0.6
 41
30.0
 62
     5
 63
     7
 74
     1
 91
        2
 64
     7
 65
   257
 75
     2
175
     1
 42
1.0
 92
        8
 66
   257
 43
1.0
 76
     1
 77
     6
 78
     2
 67
     7
 79
     3
170
     0
171
     0
290
     0
174
     0
 93
        5
 44
0.0
173
     0
291
     0
 45
0.0
1001
ACAD
1000
AcDbSavedByObjectVersion
1070
     0
  0
VISUALSTYLE
  5
1EF
102
{ACAD_XDICTIONARY
360
D64
102
}
102
{ACAD_REACTORS
330
EF
102
}
330
EF
100
AcDbVisualStyle
  2
Shades of Gray
 70
    23
 71
     2
 72
     2
 73
     3
 90
        0
 40
-0.6
 41
-30.0
 62
     5
 63
     7
 74
     2
 91
        2
 64
     7
 65
     7
 75
     1
175
     1
 42
40.0
 92
        8
 66
     7
 43
1.0
 76
     1
 77
     6
 78
     2
 67
     7
 79
     3
170
     0
171
     0
290
     0
174
     0
 93
        1
 44
0.0
173
     0
291
     0
 45
0.0
1001
ACAD
1000
AcDbSavedByObjectVersion
1070
     0
  0
VISUALSTYLE
  5
1F0
102
{ACAD_XDICTIONARY
360
D66
102
}
102
{ACAD_REACTORS
330
EF
102
}
330
EF
100
AcDbVisualStyle
  2
Sketchy
 70
    24
 71
     1
 72
     2
 73
     2
 90
        0
 40
-0.6
 41
-30.0
 62
     5
 63
     7
 74
     2
 91
        2
 64
     7
 65
     7
 75
     1
175
     1
 42
40.0
 92
       11
 66
     7
 43
1.0
 76
     1
 77
     6
 78
     2
 67
     7
 79
     6
170
     0
171
     0
290
     0
174
     0
 93
        1
 44
0.0
173
     0
291
     0
 45
0.0
1001
ACAD
1000
AcDbSavedByObjectVersion
1070
     0
  0
VISUALSTYLE
  5
FC
102
{ACAD_XDICTIONARY
360
D54
102
}
102
{ACAD_REACTORS
330
EF
102
}
330
EF
100
AcDbVisualStyle
  2
Thicken
 70
    13
 71
     2
 72
     2
 73
     1
 90
        0
 40
-0.6
 41
-30.0
 62
     5
 63
     7
 74
     1
 91
        4
 64
     7
 65
   257
 75
     1
175
     1
 42
1.0
 92
       12
 66
     7
 43
1.0
 76
     1
 77
     6
 78
     2
 67
     7
 79
     5
170
     0
171
     0
290
     0
174
     0
 93
        1
 44
0.0
173
     0
291
     1
 45
0.0
1001
ACAD
1000
AcDbSavedByObjectVersion
1070
     0
  0
VISUALSTYLE
  5
F6
102
{ACAD_XDICTIONARY
360
D48
102
}
102
{ACAD_REACTORS
330
EF
102
}
330
EF
100
AcDbVisualStyle
  2
Wireframe
 70
     5
 71
     0
 72
     2
 73
     0
 90
        0
 40
-0.6
 41
-30.0
 62
     5
 63
     7
 74
     1
 91
        4
 64
     7
 65
   257
 75
     1
175
     1
 42
1.0
 92
        0
 66
   257
 43
1.0
 76
     1
 77
     6
 78
     2
 67
     7
 79
     3
170
     0
171
     0
290
     0
174
     0
 93
        1
 44
0.0
173
     0
291
     0
 45
0.0
1001
ACAD
1000
AcDbSavedByObjectVersion
1070
     0
  0
VISUALSTYLE
  5
1F1
102
{ACAD_XDICTIONARY
360
D68
102
}
102
{ACAD_REACTORS
330
EF
102
}
330
EF
100
AcDbVisualStyle
  2
X-Ray
 70
    25
 71
     2
 72
     2
 73
     1
 90
        1
 40
0.5
 41
-30.0
 62
     5
 63
     7
 74
     1
 91
        0
 64
     7
 65
   257
 75
     1
175
     1
 42
1.0
 92
        8
 66
     7
 43
1.0
 76
     1
 77
     6
 78
     2
 67
     7
 79
     3
170
     0
171
     0
290
     0
174
     0
 93
       13
 44
0.0
173
     0
291
     0
 45
0.0
1001
ACAD
1000
AcDbSavedByObjectVersion
1070
     0
  0
DICTIONARYVAR
  5
146
102
{ACAD_REACTORS
330
5E
102
}
330
5E
100
DictionaryVariables
280
     0
  1
1:1
  0
DICTIONARYVAR
  5
259
102
{ACAD_REACTORS
330
5E
102
}
330
5E
100
DictionaryVariables
280
     0
  1
3.500000
  0
DICTIONARYVAR
  5
25A
102
{ACAD_REACTORS
330
5E
102
}
330
5E
100
DictionaryVariables
280
     0
  1
acadiso.lin
  0
DICTIONARYVAR
  5
145
102
{ACAD_REACTORS
330
5E
102
}
330
5E
100
DictionaryVariables
280
     0
  1
STANDARD
  0
DICTIONARYVAR
  5
84
102
{ACAD_REACTORS
330
5E
102
}
330
5E
100
DictionaryVariables
280
     0
  1
STANDARD
  0
DICTIONARYVAR
  5
227
102
{ACAD_REACTORS
330
5E
102
}
330
5E
100
DictionaryVariables
280
     0
  1
Metric50
  0
DICTIONARYVAR
  5
228
102
{ACAD_REACTORS
330
5E
102
}
330
5E
100
DictionaryVariables
280
     0
  1
Metric50
  0
DICTIONARYVAR
  5
5F
102
{ACAD_REACTORS
330
5E
102
}
330
5E
100
DictionaryVariables
280
     0
  1
2
  0
DICTIONARYVAR
  5
63
102
{ACAD_REACTORS
330
5E
102
}
330
5E
100
DictionaryVariables
280
     0
  1
1
  0
DICTIONARYVAR
  5
CDD
102
{ACAD_REACTORS
330
5E
102
}
330
5E
100
DictionaryVariables
280
     0
  1
0
  0
DICTIONARYVAR
  5
1AE
102
{ACAD_REACTORS
330
5E
102
}
330
5E
100
DictionaryVariables
280
     0
  1
0
  0
DICTIONARYVAR
  5
1AF
102
{ACAD_REACTORS
330
5E
102
}
330
5E
100
DictionaryVariables
280
     0
  1
0
  0
DICTIONARYVAR
  5
CDB
102
{ACAD_REACTORS
330
5E
102
}
330
5E
100
DictionaryVariables
280
     0
  1
2
  0
DICTIONARYVAR
  5
CDA
102
{ACAD_REACTORS
330
5E
102
}
330
5E
100
DictionaryVariables
280
     0
  1
1
  0
DICTIONARYVAR
  5
D2D
102
{ACAD_REACTORS
330
5E
102
}
330
5E
100
DictionaryVariables
280
     0
  1
80.000000
  0
DICTIONARYVAR
  5
D2C
102
{ACAD_REACTORS
330
5E
102
}
330
5E
100
DictionaryVariables
280
     0
  1
5.000000
  0
DICTIONARYVAR
  5
CDC
102
{ACAD_REACTORS
330
5E
102
}
330
5E
100
DictionaryVariables
280
     0
  1
127
  0
DICTIONARYVAR
  5
D2E
102
{ACAD_REACTORS
330
5E
102
}
330
5E
100
DictionaryVariables
280
     0
  1
2
  0
DICTIONARY
  5
D70
330
21C
100
AcDbDictionary
280
     1
281
     1
  3
ACAD_XREC_ROUNDTRIP
360
D71
  0
DICTIONARY
  5
D35
330
D3
100
AcDbDictionary
280
     1
281
     1
  3
ACAD_XREC_ROUNDTRIP
360
D36
  0
DICTIONARY
  5
D37
330
D7
100
AcDbDictionary
280
     1
281
     1
  3
ACAD_XREC_ROUNDTRIP
360
D38
  0
DICTIONARY
  5
D32
330
22
100
AcDbDictionary
280
     1
281
     1
  3
ACAD_XREC_ROUNDTRIP
360
D33
  0
DICTIONARY
  5
1F9
330
ED
100
AcDbDictionary
280
     1
281
     1
  3
ACAD_XREC_ROUNDTRIP
360
D3A
  3
FBXASSET
360
1FA
  0
DICTIONARY
  5
1F7
330
EC
100
AcDbDictionary
280
     1
281
     1
  3
ACAD_XREC_ROUNDTRIP
360
D39
  3
FBXASSET
360
1F8
  0
DICTIONARY
  5
173
330
EE
100
AcDbDictionary
280
     1
281
     1
  3
ACAD_XREC_ROUNDTRIP
360
D3B
  3
BUMPTILE
360
175
  3
DIFFUSETILE
360
174
  3
FBXASSET
360
1FB
  3
OPACITYTILE
360
176
  3
REFLECTIONTILE
360
177
  0
DICTIONARY
  5
D5C
330
12E
100
AcDbDictionary
280
     1
281
     1
  3
ACAD_XREC_ROUNDTRIP
360
D5D
  0
DICTIONARY
  5
D6E
330
21A
100
AcDbDictionary
280
     1
281
     1
  3
ACAD_XREC_ROUNDTRIP
360
D6F
  0
DICTIONARY
  5
162
330
7F
100
AcDbDictionary
280
     1
281
     1
  3
ACAD_ROUNDTRIP_2008_TABLESTYLE_CELLSTYLEMAP
360
D2F
  3
ACAD_XREC_ROUNDTRIP
360
D34
  0
DICTIONARY
  5
D46
330
F5
100
AcDbDictionary
280
     1
281
     1
  3
ACAD_XREC_ROUNDTRIP
360
D47
  0
DICTIONARY
  5
D44
330
F4
100
AcDbDictionary
280
     1
281
     1
  3
ACAD_XREC_ROUNDTRIP
360
D45
  0
DICTIONARY
  5
D52
330
FB
100
AcDbDictionary
280
     1
281
     1
  3
ACAD_XREC_ROUNDTRIP
360
D53
  0
DICTIONARY
  5
D5A
330
FF
100
AcDbDictionary
280
     1
281
     1
  3
ACAD_XREC_ROUNDTRIP
360
D5B
  0
DICTIONARY
  5
D4C
330
F8
100
AcDbDictionary
280
     1
281
     1
  3
ACAD_XREC_ROUNDTRIP
360
D4D
  0
DICTIONARY
  5
D50
330
FA
100
AcDbDictionary
280
     1
281
     1
  3
ACAD_XREC_ROUNDTRIP
360
D51
  0
DICTIONARY
  5
D62
330
1E6
100
AcDbDictionary
280
     1
281
     1
  3
ACAD_XREC_ROUNDTRIP
360
D63
  0
DICTIONARY
  5
D58
330
FE
100
AcDbDictionary
280
     1
281
     1
  3
ACAD_XREC_ROUNDTRIP
360
D59
  0
DICTIONARY
  5
D3C
330
F0
100
AcDbDictionary
280
     1
281
     1
  3
ACAD_XREC_ROUNDTRIP
360
D3D
  0
DICTIONARY
  5
D3E
330
F1
100
AcDbDictionary
280
     1
281
     1
  3
ACAD_XREC_ROUNDTRIP
360
D3F
  0
DICTIONARY
  5
D40
330
F2
100
AcDbDictionary
280
     1
281
     1
  3
ACAD_XREC_ROUNDTRIP
360
D41
  0
DICTIONARY
  5
D42
330
F3
100
AcDbDictionary
280
     1
281
     1
  3
ACAD_XREC_ROUNDTRIP
360
D43
  0
DICTIONARY
  5
D4A
330
F7
100
AcDbDictionary
280
     1
281
     1
  3
ACAD_XREC_ROUNDTRIP
360
D4B
  0
DICTIONARY
  5
D5E
330
1E4
100
AcDbDictionary
280
     1
281
     1
  3
ACAD_XREC_ROUNDTRIP
360
D5F
  0
DICTIONARY
  5
D56
330
FD
100
AcDbDictionary
280
     1
281
     1
  3
ACAD_XREC_ROUNDTRIP
360
D57
  0
DICTIONARY
  5
D60
330
1E5
100
AcDbDictionary
280
     1
281
     1
  3
ACAD_XREC_ROUNDTRIP
360
D61
  0
DICTIONARY
  5
D4E
330
F9
100
AcDbDictionary
280
     1
281
     1
  3
ACAD_XREC_ROUNDTRIP
360
D4F
  0
DICTIONARY
  5
D6C
330
1F3
100
AcDbDictionary
280
     1
281
     1
  3
ACAD_XREC_ROUNDTRIP
360
D6D
  0
DICTIONARY
  5
D6A
330
1F2
100
AcDbDictionary
280
     1
281
     1
  3
ACAD_XREC_ROUNDTRIP
360
D6B
  0
DICTIONARY
  5
D64
330
1EF
100
AcDbDictionary
280
     1
281
     1
  3
ACAD_XREC_ROUNDTRIP
360
D65
  0
DICTIONARY
  5
D66
330
1F0
100
AcDbDictionary
280
     1
281
     1
  3
ACAD_XREC_ROUNDTRIP
360
D67
  0
DICTIONARY
  5
D54
330
FC
100
AcDbDictionary
280
     1
281
     1
  3
ACAD_XREC_ROUNDTRIP
360
D55
  0
DICTIONARY
  5
D48
330
F6
100
AcDbDictionary
280
     1
281
     1
  3
ACAD_XREC_ROUNDTRIP
360
D49
  0
DICTIONARY
  5
D68
330
1F1
100
AcDbDictionary
280
     1
281
     1
  3
ACAD_XREC_ROUNDTRIP
360
D69
  0
XRECORD
  5
D71
102
{ACAD_REACTORS
330
D70
102
}
330
D70
100
AcDbXrecord
280
     1
102
DISPLAYNAME
  1
Metric50
102
FLAGS
 90
        0
  0
XRECORD
  5
D36
102
{ACAD_REACTORS
330
D35
102
}
330
D35
100
AcDbXrecord
280
     1
102
SHADEPLOT
 70
     0
102
SHADEPLOTRESLEVEL
 70
     2
102
SHADEPLOTCUSTOMDPI
 70
   300
  0
XRECORD
  5
D38
102
{ACAD_REACTORS
330
D37
102
}
330
D37
100
AcDbXrecord
280
     1
102
SHADEPLOT
 70
     0
102
SHADEPLOTRESLEVEL
 70
     2
102
SHADEPLOTCUSTOMDPI
 70
   300
  0
XRECORD
  5
D33
102
{ACAD_REACTORS
330
D32
102
}
330
D32
100
AcDbXrecord
280
     1
102
SHADEPLOT
 70
     0
102
SHADEPLOTRESLEVEL
 70
     2
102
SHADEPLOTCUSTOMDPI
 70
   300
  0
XRECORD
  5
D3A
102
{ACAD_REACTORS
330
1F9
102
}
330
1F9
100
AcDbXrecord
280
     1
102
MATERIAL
148
0.0
149
0.0
149
0.0
 93
        0
 94
       63
282
     0
 72
     1
 77
     1
171
     1
175
     1
179
     1
273
     0
  0
XRECORD
  5
1FA
102
{ACAD_REACTORS
330
1F9
102
}
330
1F9
100
AcDbXrecord
280
     1
 70
     1
 90
429727718
  1
D62C5603-E3A1-4AEA-B7FB-FE5D8D0755AF
310
504B03040A0000080000CC70623B3DEE336E79000000790000001B0000006175746F6465736B2D64657369676E2D7061636B6167652E786D6C3C3F786D6C2076657273696F6E3D22312E302220656E636F64696E673D227574662D3822203F3E3C666F726D6174733E3C666F726D61743E687474703A2F2F736368656D612E
310
6175746F6465736B2E636F6D2F64657369676E2D7061636B6167652F323030393C2F666F726D61743E3C2F666F726D6174733E504B0304140006080800CC70623BD486FD9CA0000000F4000000130000005B436F6E74656E745F54797065735D2E786D6C7D8EC10E82300C865F65E91D8A1E8C310C0EEA1BF002731658846E
310
D98AC1B77784ABF1D8FE5FBFBF75BBCE937A534CCEB38643598122B6FEE978D0B0485F9C41B54DDD7D022595594E1A469170414C76A4D9A4D207E29CF43ECE46F218070CC6BECC4078ACAA135ACF422C856C0E68EA1BF5669944DDD7BCDE7B1F8E415D77AECB980613C2E4AC91FC167A2B244592486606FC29C8FD7F045B9A
310
EF7053A7E60B504B0304140006080800CC70623B853B8169EB0000007C01000008000000636F72652E786D6C8D90416EC3201045AF62CDB6C206821CC7C244919D9CA01740401C94182C03558F5F9C3852BBEB6A467FFE9B197D7EFC9E1EC5975982F5AE035262288C535E5B377690E21535501C055FBC8FBF6C503839990E
310
5619041F179FE64D52DE45E362569DD7661365082642A11EB9E920A89B99642953CC8E702F67A9EE7234257977194EC9EAE275C4EABCCF5EAD5940D4AC6F0E35A568B8F43562CD7046CD199FD07E60174276A7BE677B5EADB0E0D14EEFFB6A31321A0D82627C4084204C3F096B71DD52F6819B16635EADF63F509AF53FA164
310
5DDCD1EDDD17164090FCC8732078B56691CB33A85CD7DCC40F504B0304140006080800CC70623B55019EA25F0000007C00000007000000636E782E786D6C4DCB3B0E80201045D1AD90E915ED2CF8AC45050C11660C8261F98AB1B07AC9C97D42D718D865D3E909258CFD00CCE24AC6E326A164D74DC0B4128928FF32603847
310
2BA13128B1252AC747C6BAB984FC68F0B87FE8960A5C09FE86CFB69FBA01504B0304140006080800CC70623BDBABAAF470010000D40300000C0000006662782F636F72652E786D6CC553D16E823014FD95A6AF4B694182CC941A83FA05FB810A9511A125A5257EFE2E82712ECEB8A7F100CD39F7F69E734AF9FADC366850B6
310
AF8DCE7018308C942E4C59EB2AC3DE1D498AD15A706B8CFB56869196ADCAF00863C12B6B7C374385D14E6907A836A59A41D9F7CA615434B0C8705F7CAA5606D23BA8E84F41278B93AC54100640439DE0BDB320004D43C63716C7C399D30917DCFBBA9CD9BA8469F5B156168B24CED3F7248AC8769F27244EB73B92EED8862C
310
B7F13E0C179B3C8F979C8ECD82BBBABDAA2BAC924E9558448CBD9330242CFA08E3154B5651FCC6D215639C8EE5774DBE2B5F6CF2B5768B68963BB5F5588420E442FC700B1139D4CB01F450C1E918227C2E09DF070D8140C84E1E9AAB8F1340832A9CB13130A5F1376A908D57309505ECF2A0DF179C4E9D30F5B239B87E3823
310
7A79C6F31DE1A8A5AEC08474B03C7837EAE4938639B44E5932B833D2C6B6B279CDC613877FA26EE21F4A2A4C63EC7F29A2F301D1F9F7A0E37D145F504B0304140006080800CC70623B9C113CC27E0000009D0000000B0000006662782F636E782E786D6C4DCCDF0A83201C86E15B91DFB94BFB330DD428C8FB886521330DA7
310
6397BF1A1DECE883878F57749FCDA1B7892F1BBC047A23808C7F84D9FA55424E0BE6803A256208E9EF06C84F9B91703228B1C690F78B66B34CD9A5439DF5CF0BFBF65E35BCA1B8D6A5C6F540381E886698B5741C695F9503EBA150A2F8958E3DC3EA0B504B0304140006080800CC70623B7DF2F77C2A010000120200003100
310
00006662782F41393633353835312D344632462D344230382D423046372D3739314545314133324237412F636F72652E786D6C8D51DB8EC22014FC15C2939B0D2DB4B45643319AE817EC0F6041255A68B86CFCFC856D4D76DF7CE190393373060EDB3DC707F856CE6B6B7A480A0C81328395DA5C7B18C3057510EC3873D686
310
3F34088C18550F330C39BB3A1BA7051AAC09CA84841A2BD5020AEF55806078A44B0FFD7053A328440C89E1EFC52486BBB8AA8214A99D789CF9E05200300FC927E4FB4D5B375D43103D5527440FB843077C5AA3F5861C8F645F5787F59E95B390B318B55CE45AA638FAA2957BD7248B390B7A7CC51F9C124149C82B8C378810
310
84AB2F42B7B8DD56F413775B8C5999E9FF4471926F8AA236A1AE96B8B3CC434E5839373893369E1FAF30EA395917409EB7F26AF8801C171837A4A6AC9C89E9F9C9B1A58BA30FD6A5EF5DDDCF894B9AD9B6A59C957943A9FCAE2FD5BC4DFE03504B0304140006080800CC70623BAD7543B64E01000033030000300000006662
310
782F41393633353835312D344632462D344230382D423046372D3739314545314133324237412F636E782E786D6CD593CD6EC32010845F0571AD6CE3D48AD20813A9873E410FBD12D82434182C7EAAE6EDBB2424CD25871E7B41D6EC30B3FA84F9E67BB2E40B4234DE8DB46F1925E094D7C6ED479AD3AE5951B2113C789FEE
310
6C943839C1488B4C05DF079FE72A69D8C96C13AAD6B8631503449F83828872B949AC57D26200B826A308D316B4064D6E46FCDA41C05550DC9E483A00797BFD207EFB092A45DE9514C1BBD22178396BD39D891265658C238DEA00936C654E5E433CB65A26D9F6EDB5EBC14EBF49A45CB856E66048291F6939A9A81BB5C89177
310
38143CA680F4AA299D66A042CEB3354A2684DC9D8D178FE0D9B8B41CAAD720F880EE7EF93C0C18769E099ECC04D5A102C8049A8A05632F4DDF376CF1DE0F6BB65C2F8627B65A33C6BB62177CEBBDAD973006829F89F22E814B54F4BC2BE347F8AA8F681390B50FA73F804400B5F542E796F19FF974E7F78DB802FE05E20750
310
4B0304140006080800CC70623BE75B7789680500003C100000340000006662782F41393633353835312D344632462D344230382D423046372D3739314545314133324237412F6F626A656374732E786D6CAD575B8F9B3818FD2B887D06C22499CB8AA1CA655245D5B455A356FB305264C061D8018C6C3393D95FBFC7600890
310
A4CD5EF210B0B1BFEBF98E3F7B1FF6596ABC522E1296DF9BAE3D320D9A872C4AF2F8DE2CE5CEBA358D0FBEC719939D65A691938CDE9B6ADAF4BD98B3B2D05311DD91329583D9D5FC0F438434A7A611A644887B5384CF34233629258BA878B12322891DEFF6B66BD70BFB62634E8AE781D082709A4B588AF91C528CDA28B73F
310
1C998EEF39EABBEFA97FBD6A7C7E9553F9D3D79FE442923C3C523610337627CB87ABE99D359D4CC6D6E4FACAB5E6ABF9D2726FC6A3C5F56271377BB88362213924694B38DD99FE47C48627A1E7D49F5A8BB5E1A74C0A599ED3B0F21F1E56366B89112D681E218F0915D0D6F17AD41FBA2A369DCF6335D62ABBD39779D5DDD1
310
11D4D8DE3CBB96B2E04FB8202E41051754A1AA8E8F76B4C6DFE810B580B1547F4B84911149794252234D024EF8BBE963A95AE27B3D310A9D5C215C7960FAEE415ED75694C6AFB17BCACA5D99A60A9AA65F217B0BFC53292ACB92BF283FAD0D3621576592CB5BED907C2FA8E9DF794E35E97BEA31BED21FEB401ABB94C44839
310
DCACBF0E1C5DA8DA5B2F4DFFD32AD86F543D9E565E7056502E157C00AD2671CD534549AB752FCA9CDA00677A313F04E51B22FF19E57B300579E3C97EB29F682D92935CEC18CF901B7B54FD8C51F362B56FC72FE0B3C1EAE335EDCCBF5AEC39ADB17DC238973F804BA5E6F6BFE7AF1FB32E523BE9F3BD571418E3631DCA4D48
310
5250CF639223210A9446CA30052EDF057BD35F8329C1ECD84552BF0DC8D18BE7BCE23BFE6BD960AB4A7DE79923A103BEBD80F911CBAA2C60DB19B01CF164A5583B772EE6D3FFA56666CBCDA74DC97724A48F9A58967497E489C4D979006FD7A05E227A1EBDD0F737C623387A9C844D3709995625106D157315F8B8392CD4E0
310
A0B9A720C4BE9829CEF37EA1E13111214D53925356365ADA634861B52519DD27A00AEB808EAF0628E6F435519D446F45CF2C9CF5214F0A15B2F6D06B79DA3EE3CBF7F56780D2F4E7EF73A0F5E5B02A38D07DC852C6B7C1FBB6664213E0C39E3EBA7FF4E1AD23EA2829407C85E586727488B751B2DB9502BC7B228A3FD68B6E
310
A65A22397E690AA8D158D7E404EC8CDA235CC3B7D1898680131CEC2CDF2638C65196279577750F15884AEE19F94199155B92B13297978469D4F8D358DF0AEF7631E28DC8F0D9F437D5D39A83B2231A1D52D543813A824EF8D44BCFF2FA6A31BD1E8DAD87F1CCB526B3879935BF59CDADD5C37479BB1CDD4CA7B3556B516589
310
EF352754B706114D9C885EC9131DE6EFEB43D99AFE2391C2F958179413D7CFEF6B1B6DB1E7600F00DE6E5C67454A339A4BA2E0FBA85ED26F045D454F463DBFCE484C2F90F2E5E3666003662ED8F755951A7D1BECD5B30B550B2785C8E7320B7292A4838DDA71BBC863ED7613CAF659337A3354231D4FF4A182A54904C2898C
310
98B28C4AD0CE056CCF332A80986E571EE9DBC305BB5FEB7E509220A58D25CF042D712A806AC0AD0C657FDEF80D2D9CEAA2EE4D1C76F60BFE74219A06527D6F82DF6412526107381E55E353090704D085B52408A8913C4ED159D79BDA71BB4BC506F4831350EB6F975CD22D69BF7AC49B91A2C0A9DDA3D5CA36AD20FC478E37
310
E61844E2352865EBCB61A275A65283CAAA9DD27703B4102F5AF51EF5F573B75CBB5AD38BC845F7A49F82A0966A49C2E3EA5EA0ECD326CD965F1DB402C6FA8B51A4658C5C5E2EC9E214602E55810345408596591009A82E7E7FFACA19EEA299B14A0081A705CB3296EBC14CDF658DCD336EA6D1136881AAEB87B81AB9EE53D5
310
F5EB8BC8362082DA24122F98680A4E7930C01A0079749CEA14382A0783E5EBA5A10F8C098456A03D6A4AEB6BB881E2513747552A5DB22C7EDAF83BD5528081A365F7FF06504B0304140006080000CC70623B000000000000000000000000350000006662782F41393633353835312D344632462D344230382D423046372D37
310
39314545314133324237412F76657274696365732E62696E504B0304140006080800CC70623BF270F1330600000004000000360000006662782F41393633353835312D344632462D344230382D423046372D3739314545314133324237412F747269616E676C65732E62696E636660600000504B0304140006080000CC7062
310
3B000000000000000000000000370000006662782F41393633353835312D344632462D344230382D423046372D3739314545314133324237412F617474726962757465732E62696E504B0304140006080800CC70623B08DA0BD19000000041010000360000006662782F41393633353835312D344632462D344230382D4230
310
46372D3739314545314133324237412F6469726563746F72792E786D6C858F410AC3201045AF22B36F53E9A60B35CBEEBAE80D244E44489C6234F4F835464A48035D0DF398FF9F8AF63D0E6CC63039F212F8F9020C7D47C6792B21C5FE7403D62A1188E2E60C98D7234A5830286103A55745067B9D86B8A3CF9C7F90C11DE6
310
07FB144396D7B6A82D282E9A152AD114D5EF2CB866EEE831B8EEA07A7BB5A8D7D61A2BAAEB7FD5F70921FF497D00504B0304140006080800CC70623BEDD1DC58FD000000A00100003B0000006662782F41393633353835312D344632462D344230382D423046372D3739314545314133324237412F7265736F75726365732F
310
636F72652E786D6C8D504B6E833010BD0A9A6D65B00922041947112427E8052C33A156828DFCA97AFC9A40A576D7CDCCE87D344F8F9FBFE667F689CE6B6B3A6039850C8DB2A336530731DC4903D95970676DF82583CCC8193B5861107C72362E3BA4AC096842428D1D7107A5F7182053CF7474E0D507CE32973124857FE48B
310
540F3961CEF244279DE03EB81420DB9EAC1384436FA353E879B1B182C7A8C75DA3C7F453DF353A1075D537A7BA6464B8F535A99AE14A9A2BBD90E350DD183B5CFABE3AF262350B1EF4FC9351399401471025A527C218A1E53BAB5A5AB765F5469B96525EACF23FA6B88CFF34456DC2A1DCE36E360F82A5202F42F062ED2BAD
310
579969AFDD8A6F504B010214000A0000080000CC70623B3DEE336E79000000790000001B00000000000000000000000000000000006175746F6465736B2D64657369676E2D7061636B6167652E786D6C504B01021400140006080800CC70623BD486FD9CA0000000F40000001300000000000000000000000000B20000005B
310
436F6E74656E745F54797065735D2E786D6C504B01021400140006080800CC70623B853B8169EB0000007C010000080000000000000000000000000083010000636F72652E786D6C504B01021400140006080800CC70623B55019EA25F0000007C000000070000000000000000000000000094020000636E782E786D6C504B
310
01021400140006080800CC70623BDBABAAF470010000D40300000C00000000000000000000000000180300006662782F636F72652E786D6C504B01021400140006080800CC70623B9C113CC27E0000009D0000000B00000000000000000000000000B20400006662782F636E782E786D6C504B01021400140006080800CC70
310
623B7DF2F77C2A010000120200003100000000000000000000000000590500006662782F41393633353835312D344632462D344230382D423046372D3739314545314133324237412F636F72652E786D6C504B01021400140006080800CC70623BAD7543B64E010000330300003000000000000000000000000000D2060000
310
6662782F41393633353835312D344632462D344230382D423046372D3739314545314133324237412F636E782E786D6C504B01021400140006080800CC70623BE75B7789680500003C10000034000000000000000000000000006E0800006662782F41393633353835312D344632462D344230382D423046372D3739314545
310
314133324237412F6F626A656374732E786D6C504B01021400140006080000CC70623B0000000000000000000000003500000000000000000000000000280E00006662782F41393633353835312D344632462D344230382D423046372D3739314545314133324237412F76657274696365732E62696E504B01021400140006
310
080800CC70623BF270F133060000000400000036000000000000000000000000007B0E00006662782F41393633353835312D344632462D344230382D423046372D3739314545314133324237412F747269616E676C65732E62696E504B01021400140006080000CC70623B0000000000000000000000003700000000000000
310
000000000000D50E00006662782F41393633353835312D344632462D344230382D423046372D3739314545314133324237412F617474726962757465732E62696E504B01021400140006080800CC70623B08DA0BD1900000004101000036000000000000000000000000002A0F00006662782F41393633353835312D344632
310
462D344230382D423046372D3739314545314133324237412F6469726563746F72792E786D6C504B01021400140006080800CC70623BEDD1DC58FD000000A00100003B000000000000000000000000000E1000006662782F41393633353835312D344632462D344230382D423046372D3739314545314133324237412F7265
310
736F75726365732F636F72652E786D6C504B0506000000000E000E0080040000641100000000
  0
XRECORD
  5
D39
102
{ACAD_REACTORS
330
1F7
102
}
330
1F7
100
AcDbXrecord
280
     1
102
MATERIAL
148
0.0
149
0.0
149
0.0
 93
        0
 94
       63
282
     0
 72
     1
 77
     1
171
     1
175
     1
179
     1
273
     0
  0
XRECORD
  5
1F8
102
{ACAD_REACTORS
330
1F7
102
}
330
1F7
100
AcDbXrecord
280
     1
 70
     1
 90
429727718
  1
30362254-06B7-45E0-A893-8CFA70E3D6BC
310
504B03040A0000080000CC70623B3DEE336E79000000790000001B0000006175746F6465736B2D64657369676E2D7061636B6167652E786D6C3C3F786D6C2076657273696F6E3D22312E302220656E636F64696E673D227574662D3822203F3E3C666F726D6174733E3C666F726D61743E687474703A2F2F736368656D612E
310
6175746F6465736B2E636F6D2F64657369676E2D7061636B6167652F323030393C2F666F726D61743E3C2F666F726D6174733E504B0304140006080800CC70623BD486FD9CA0000000F4000000130000005B436F6E74656E745F54797065735D2E786D6C7D8EC10E82300C865F65E91D8A1E8C310C0EEA1BF002731658846E
310
D98AC1B77784ABF1D8FE5FBFBF75BBCE937A534CCEB38643598122B6FEE978D0B0485F9C41B54DDD7D022595594E1A469170414C76A4D9A4D207E29CF43ECE46F218070CC6BECC4078ACAA135ACF422C856C0E68EA1BF5669944DDD7BCDE7B1F8E415D77AECB980613C2E4AC91FC167A2B244592486606FC29C8FD7F045B9A
310
EF7053A7E60B504B0304140006080800CC70623B1EC5D7A3EB0000007C01000008000000636F72652E786D6C8D90416EC3201045AF82665B6103C6756C6122AB4D4ED00B204C5C94182C03558F5F9C3852BBEB6A467FFE9B197D71FC9E6FE8CBACC17AD7032D0820E3B41FAD9B7A48F1820F808E52ACDEC75F36404ECDA687
310
4D0629A6D5A76597B477D1B89855E747B38B2A041301E95B6E7A08FAD3CCAA50296647B8168BD2573599823EBB0CA76447F43862C7BCCF5EAC59410E4DDD9C7973C2755553CCCFA4C603E3040F1565ED3B1FDE4E432BCA0D9622DAF9795FAF464533826484B498524CD807E51D79ED187F21878E10516EF63F505AC67F42C9
310
BA58B1FDDD071640D2FCC87D2045B96591CB3DA85CB7DCE40F504B0304140006080800CC70623B55019EA25F0000007C00000007000000636E782E786D6C4DCB3B0E80201045D1AD90E915ED2CF8AC45050C11660C8261F98AB1B07AC9C97D42D718D865D3E909258CFD00CCE24AC6E326A164D74DC0B4128928FF32603847
310
2BA13128B1252AC747C6BAB984FC68F0B87FE8960A5C09FE86CFB69FBA01504B0304140006080800CC70623B8C9102E971010000D40300000C0000006662782F636F72652E786D6CC5535B6E833010BC8AE5DF0A6C08340F1947A84D4ED00B38C6A128602363A31CBFCB234A53A551FA553EC09AD9F5CE8C31DB9E9B1AF5CA
310
7695D1198E428A91D2D214952E33ECDD315861B4E5CC1AE3BE9561A445A3323CC098B3D21ADFCE9034DA29ED00D5A6503328BA4E398C640D8B0C77F253352214DE4145770A5B214FA2546114020D759C75CE8200340D19DE981F0F6746269C33EFAB6266AB02A655C74A59CCF365BADC27CB5D902ED22848F6340DF238A141
310
BE88E2F57B92BFEDF23523433367AE6A2EEAA455C2A902F398D2751045018D3FA264435F3771F242571B4A1919CA6F9A7C5B3CD9E42BED16F12C776AEB308F40C848FC700B1139D4891EF410CEC810227CC6846F8386402064270EF5C5C709A05E49676C024C61FC95EA45ED154CA5211D1FF4FB8291A913A68E9B83EBBB33
310
E2A7673CDE118E5AE8124C0807CB8377834E366998436B950D7A7746DAD846D4CFD978E0F04FD455FC5D49D2D4C6FE9722321F10997F0F32DC47FE05504B0304140006080800CC70623BFFEA85907E0000009D0000000B0000006662782F636E782E786D6C4DCCD10A83201886E15B91FFDC95D95A811AB6F23E625948A6C3
310
E9D8E5AF46073BFAE0E1E365ED67B3E8ADC3CB78C7815C7240DA3DFC64DCC221C519D7805AC182F7F1EF06C88D9BE6703008B6049F9E274D7A1E938DBB5AE3D6131B2589BA0D3D965551E0B2EA732C9B9A624AAEB41E3A557677029960D9AFB4EF11165F504B0304140006080800CC70623B4FEEA4082C0100001202000031
310
0000006662782F39464131463745442D413632322D343644302D413938332D3331353338454246344243312F636F72652E786D6C8D515B6EC32010BC0AE2AB55850DD871ED0813254D72825EC00192A2C460F1A872FC42ED48ED5F7E00CDCECCCEB26C731F6FE05B39AFADE921293004CA082BB5B9F43086336A21D870E6AC
310
0D7F68109861543DCC30E4ECE26C9C164858139409093556AA051CBC570102714B8F1E7AF1A5C6A11862480C7F2DA6415C878B2A4891CA89C7990F2E050073937C42DE1DB7E4F87ED8A36D4329AA9B3D46DBAEAD504556557BD81DEBDD0761E52CE42C462D17B996298E3E6BE59E35C962CE821E1FF18553435012728A7187
310
0841987E927A8D9B35ADDF70BBC6989599FE4F1427F9A4286A132ABAC49D651EF234CD5CE04CDA78BA3DC2A8FB645D00B9DF8B57E215725C60BCA2A463E54C4CE327C7A65E1C7DB02E7DEFCBF594B864C5CA6CDBD49C957943E9FA5D5FBAF336F90F504B0304140006080800CC70623BAD7543B64E01000033030000300000
310
006662782F39464131463745442D413632322D343644302D413938332D3331353338454246344243312F636E782E786D6CD593CD6EC32010845F0571AD6CE3D48AD20813A9873E410FBD12D82434182C7EAAE6EDBB2424CD25871E7B41D6EC30B3FA84F9E67BB2E40B4234DE8DB46F1925E094D7C6ED479AD3AE5951B2113C
310
789FEE6C943839C1488B4C05DF079FE72A69D8C96C13AAD6B8631503449F83828872B949AC57D26200B826A308D316B4064D6E46FCDA41C05550DC9E483A00797BFD207EFB092A45DE9514C1BBD22178396BD39D891265658C238DEA00936C654E5E433CB65A26D9F6EDB5EBC14EBF49A45CB856E66048291F6939A9A81BB5
310
C8917738143CA680F4AA299D66A042CEB3354A2684DC9D8D178FE0D9B8B41CAAD720F880EE7EF93C0C18769E099ECC04D5A102C8049A8A05632F4DDF376CF1DE0F6BB65C2F8627B65A33C6BB62177CEBBDAD973006829F89F22E814B54F4BC2BE347F8AA8F681390B50FA73F804400B5F542E796F19FF974E7F78DB802FE05
310
E207504B0304140006080800CC70623B16AB87BA640500003C100000340000006662782F39464131463745442D413632322D343644302D413938332D3331353338454246344243312F6F626A656374732E786D6CAD575B6FA33818FD2B887DE6924B3BED8A326A92B68A663B534DD4D13E548A0C38942D60649B369D5FBFC7
310
600890A493BDE42160637FD7F31D7FF63E6FB3D478A55C242CBF3247B66B1A340F5994E4F19559CA8D75611A9F7D8F33263BCB4C232719BD32D5B4E97B316765A1A722BA21652A07B3B7B33F0D11D29C9A46981221AE4C113ED38CD8A4942CA2E2C58E882476BCD9DA23BB5ED8171B73523C0F841684D35CC252CCE79062D4
310
468DFA43D7747CCF51DF7D4FFDEB5593E3AB9CCA9FBEFE241792E4E19EB28198C968BAB8199F5D5A67D3E9C49A9E8F47D6EC76B6B0469F26EEFC7C3EBFBCBEB98462213924694B38DD98FE1D62C393D073EA4FADC5DAF04326852CCF6958F90F0F2B9BB5C48816348F90C7840A68EB78EDF68723159BCEE7891A6B95DDE9D3
310
BCEAEEE8086A6C6F9E5D4B59F0175C10A7A0820BAA5055C7473B5AE3CFDD452D602CD5DF12616444529E90D448938013FE6EFA58AA96F85E4F8C42275708571E98FE6827AF6B2B4AE3D7D83D64E5A64C53054DD3AF90BD06FEA9149565C94FCA0F6B834DC85599E4F2423B24DF0B6AFA979E534DFA9E7A4CC6FA631D486393
310
921829879BF5D781A373557BCB85E97FB90DB62B558F8795179C15944B051F40AB495CF35451D26A4727654E6D8033BD98EF82F21D91FF8AF2DD9982BCF1643BDD4EB516C9492E368C67C88DED563FC36D5EACF66DFF057C3658BDBFA69DF9578B3DA735B64F18C7F20770A9D45CFCF7FCF563D6456A277DBEF78A02637CA2
310
43B90A490AEAB94F72244481D24819A6C0E59B606BFA4B3025981DBB48EAB701D97BF19C577CC77F2D1B6C55A9EF3C732474C0B727303F625995056C3B02963D9EAC146BE78EC5FCEC7FA999EBC5EACBAAE41B12D27B4D2C0BBA49F244E2ECDC81B76B502F113D8F5EE8FB1BE3111CDD4FC2AA9B844CAB1288B68AB90A7CDC
310
1C166AB0D3DC5310625FCC14E779BFD0709F8890A629C9292B1B2DED31A4B0DA928CEE135085754027E3018A397D4D5427D15BD1330B677DC8934285AC3DF45A9EB68FF8F2B8FC0A509AFEECFD0FF2DE25CC6047F7214B195F07EFEB9A094D800F7BFAE8FED187B78EA8A3A400F115961BCAD1215E47C966530AF0EE8128FE
310
58CEBB996A8964FFA529A046635D9353B0336A8F700DDF46271A024E70B0B37C9DE01847591E54DED53D54202AB947E4076556AC49C6CA5C9E1226B7F1A7B1BE15DEED62C41B91E1B3E9AFAAA735036547343A925075041DF0A9979E893B391F8FCFA6967B3EFB644DCF6E5CEBFAE272625DCC6FAF3FB93793C5F90CE1EF57
310
407342756B10D1C489E8953CD1617E5CEECAD6F4EF8914CE5D5D504E5C3F1F9736DA62CFC11E00BCDDB8CC8A9466349744C1F75EBDA4DF09BA8A9E8C7A7E9991989E20E5DBDD6A6003664ED8F7A04A8DBE0DF6EAD9B9AA858342E47399053949D2C146EDB85DE4B176BB0965FBAC19BD19AA918E27FA50C1D22402E144464C
310
59462568E704B6E71915404CB72B8FF4EDE184DDAF753F284990D2C6926782963815403548A70C657FDEF80D2D9CEAA2AE4C1C76F60BFE74219A06527D6582DF6412526107381E55E353090704D085B52408D0933C4ED159D79BDA71BB4BC506F4831350EB6F979CD22D69BF7AC49B91A2C0A9DDA3D5CA36AD20FC478E37E6
310
1844E2352865EBCB6EA275A652E3836BE04EFB400BF1A2556F515F1FBB35B2AB35BD889C744FFA1004B5544B121E57F70215746DD2F5E2C1412B602CBF19455AC6C8E5E9922C4E01E65215385004546899059180EAFCF7A707CE7017CD8CDB0410789AB32C63B91E5CEBBBACB17AC6CD347A022D5075FD106377347AAABA7E
310
7D11590744509B44E205134DC1290F06580320F78E537D3D73540E06CB970B431F185308AD40BBD794D6D77003C5A36E8EAA54BA64597CD8F83BD552A080A365F7FF06504B0304140006080000CC70623B000000000000000000000000350000006662782F39464131463745442D413632322D343644302D413938332D3331
310
353338454246344243312F76657274696365732E62696E504B0304140006080800CC70623BF270F1330600000004000000360000006662782F39464131463745442D413632322D343644302D413938332D3331353338454246344243312F747269616E676C65732E62696E636660600000504B0304140006080000CC70623B
310
000000000000000000000000370000006662782F39464131463745442D413632322D343644302D413938332D3331353338454246344243312F617474726962757465732E62696E504B0304140006080800CC70623B08DA0BD19000000041010000360000006662782F39464131463745442D413632322D343644302D413938
310
332D3331353338454246344243312F6469726563746F72792E786D6C858F410AC3201045AF22B36F53E9A60B35CBEEBAE80D244E44489C6234F4F835464A48035D0DF398FF9F8AF63D0E6CC63039F212F8F9020C7D47C6792B21C5FE7403D62A1188E2E60C98D7234A5830286103A55745067B9D86B8A3CF9C7F90C11DE607
310
FB144396D7B6A82D282E9A152AD114D5EF2CB866EEE831B8EEA07A7BB5A8D7D61A2BAAEB7FD5F70921FF497D00504B0304140006080800CC70623B0D6EF93BFE000000A00100003B0000006662782F39464131463745442D413632322D343644302D413938332D3331353338454246344243312F7265736F75726365732F63
310
6F72652E786D6C8D50596E833010BD0A9ADFCA60B334011947A8694ED00B586642AC041B79A97AFC9A40A5F6AF3F33A3B7689E1E3F7DCD8FEC139DD7D6F4C0720A191A65476DA61E62B892236427C19DB5E1970C322367EC618541F0C9D9B8EC90B226A009093576C41D94DE63804C3DD2D18357379C652E63480A7FCF17A9
310
EE72C29CE5894E3AC17D702940B63D59270887DE46A7D0F36263058F518FBB468FE9A7BE6A7420864373B8D4873369AA8691FA421B3294352543C5CAF65C0F6FEF43CB8BD52C78D0F34F46E550061C419494B6843142CB0F5677F4B52BEB177AEC28E5C52AFF638ACBF84F53D42654E51E77B379102C05791282176B5F693D
310
CB4C7BED567C03504B010214000A0000080000CC70623B3DEE336E79000000790000001B00000000000000000000000000000000006175746F6465736B2D64657369676E2D7061636B6167652E786D6C504B01021400140006080800CC70623BD486FD9CA0000000F40000001300000000000000000000000000B20000005B
310
436F6E74656E745F54797065735D2E786D6C504B01021400140006080800CC70623B1EC5D7A3EB0000007C010000080000000000000000000000000083010000636F72652E786D6C504B01021400140006080800CC70623B55019EA25F0000007C000000070000000000000000000000000094020000636E782E786D6C504B
310
01021400140006080800CC70623B8C9102E971010000D40300000C00000000000000000000000000180300006662782F636F72652E786D6C504B01021400140006080800CC70623BFFEA85907E0000009D0000000B00000000000000000000000000B30400006662782F636E782E786D6C504B01021400140006080800CC70
310
623B4FEEA4082C0100001202000031000000000000000000000000005A0500006662782F39464131463745442D413632322D343644302D413938332D3331353338454246344243312F636F72652E786D6C504B01021400140006080800CC70623BAD7543B64E010000330300003000000000000000000000000000D5060000
310
6662782F39464131463745442D413632322D343644302D413938332D3331353338454246344243312F636E782E786D6C504B01021400140006080800CC70623B16AB87BA640500003C1000003400000000000000000000000000710800006662782F39464131463745442D413632322D343644302D413938332D3331353338
310
454246344243312F6F626A656374732E786D6C504B01021400140006080000CC70623B0000000000000000000000003500000000000000000000000000270E00006662782F39464131463745442D413632322D343644302D413938332D3331353338454246344243312F76657274696365732E62696E504B01021400140006
310
080800CC70623BF270F133060000000400000036000000000000000000000000007A0E00006662782F39464131463745442D413632322D343644302D413938332D3331353338454246344243312F747269616E676C65732E62696E504B01021400140006080000CC70623B0000000000000000000000003700000000000000
310
000000000000D40E00006662782F39464131463745442D413632322D343644302D413938332D3331353338454246344243312F617474726962757465732E62696E504B01021400140006080800CC70623B08DA0BD190000000410100003600000000000000000000000000290F00006662782F39464131463745442D413632
310
322D343644302D413938332D3331353338454246344243312F6469726563746F72792E786D6C504B01021400140006080800CC70623B0D6EF93BFE000000A00100003B000000000000000000000000000D1000006662782F39464131463745442D413632322D343644302D413938332D3331353338454246344243312F7265
310
736F75726365732F636F72652E786D6C504B0506000000000E000E0080040000641100000000
  0
XRECORD
  5
D3B
102
{ACAD_REACTORS
330
173
102
}
330
173
100
AcDbXrecord
280
     1
102
MATERIAL
148
0.0
149
0.0
149
0.0
 93
        0
 94
       63
282
     0
 72
     1
 77
     1
171
     1
175
     1
179
     1
273
     0
  0
XRECORD
  5
175
102
{ACAD_REACTORS
330
173
102
}
330
173
100
AcDbXrecord
280
     1
270
     1
271
     1
  0
XRECORD
  5
174
102
{ACAD_REACTORS
330
173
102
}
330
173
100
AcDbXrecord
280
     1
270
     1
271
     1
  0
XRECORD
  5
1FB
102
{ACAD_REACTORS
330
173
102
}
330
173
100
AcDbXrecord
280
     1
 70
     0
 90
1673772943
  1
ECE7A1D2-D628-4531-984C-D00F80459256
310
504B03040A0000080000CC70623B3DEE336E79000000790000001B0000006175746F6465736B2D64657369676E2D7061636B6167652E786D6C3C3F786D6C2076657273696F6E3D22312E302220656E636F64696E673D227574662D3822203F3E3C666F726D6174733E3C666F726D61743E687474703A2F2F736368656D612E
310
6175746F6465736B2E636F6D2F64657369676E2D7061636B6167652F323030393C2F666F726D61743E3C2F666F726D6174733E504B0304140006080800CC70623BD486FD9CA0000000F4000000130000005B436F6E74656E745F54797065735D2E786D6C7D8EC10E82300C865F65E91D8A1E8C310C0EEA1BF002731658846E
310
D98AC1B77784ABF1D8FE5FBFBF75BBCE937A534CCEB38643598122B6FEE978D0B0485F9C41B54DDD7D022595594E1A469170414C76A4D9A4D207E29CF43ECE46F218070CC6BECC4078ACAA135ACF422C856C0E68EA1BF5669944DDD7BCDE7B1F8E415D77AECB980613C2E4AC91FC167A2B244592486606FC29C8FD7F045B9A
310
EF7053A7E60B504B0304140006080800CC70623BD9DDAED0EC0000007C01000008000000636F72652E786D6C8D90416EC3201045AF82665B61836D9CD8C2444DD39CA01740405C94182C03558F5F9C3852BBEB6A467FFE9B197D7EF89E6EE8CB2CC17A37002D0820E394D7D68D03A478C17B4007C117EFE32F1B20272733C0
310
2A83E0E3E2D3BC49CABB685CCCAAF3DA6CA20CC14440EA969B0182FA34932C648AD911AEC52CD5558EA6A0CF2EC329598D1E47ACCEFBECC59A050463A7EA5833865FEBDD0E37353BE3EE8DBDE3F6786A48D375FBF6CC78B9C282473B3DEFABC5C86834888A900E538A49F5419B9EB47DD5BC907D4F082F57FB1F28CDFA9F50
310
B22ED6D5F6EE030B20687EE43E10BC5CB3C8E51E54AE6B6EE207504B0304140006080800CC70623B55019EA25F0000007C00000007000000636E782E786D6C4DCB3B0E80201045D1AD90E915ED2CF8AC45050C11660C8261F98AB1B07AC9C97D42D718D865D3E909258CFD00CCE24AC6E326A164D74DC0B4128928FF326038
310
472BA13128B1252AC747C6BAB984FC68F0B87FE8960A5C09FE86CFB69FBA01504B0304140006080800CC70623BA24EB22D72010000D40300000C0000006662782F636F72652E786D6CC5535B6E833010BC8AE5DF0A6C5E49888CA3A6694ED00B38E05014B091B1518EDFE511A5A9D228FD2A1F60CDEC7A67C6986DCE4D8D7A
310
69BA4AAB0C073EC548AA5C17952A33ECECD15B61B4E1CC686DBF9561A44423333CC098B3D268D7CE50AE9595CA02AA74216750749DB418E5352C32DCE59FB211BE70162ABA93DF8AFC244AE9073ED050C759670D0840D390E18DF9F1706664C23973AE2A66B62A605A75ACA4C13C4976E1364A12EF355A2EBD384AF65EFA96
310
BC7B8BED2EA6719AAE16FB8491A199335B351775B991C2CA02F390D2D40B028F861F41BCA68B7518BFD0D59A524686F29B26D7164F36B94AD9289CE54E6D1DE6010819891F6E21228B3AD1831EC219194284CF98F06DD01008846CC5A1BEF83801D4CBDC6A1303536877A57A513B0953A94FC707FDBE6064EA84A9E3E6E0FA
310
EE8CF0E9198F7784A316AA0413C2C2F2E0ECA0934D1AE6D05A69BCDE9E91D2A611F573361E38FC1375157F5752AE6B6DFE4B11990F88CCBF0719EE23FF02504B0304140006080800CC70623B408A7D3B7C0000009D0000000B0000006662782F636E782E786D6C4DCCD10A83201886E15B91FFDC552A92A0064DBC8F581632
310
D3703A76F9ABD1C18E3E78F878E5F0D9027ABBFCF2292AE86E2D20171F69F6715550CB827B40839639A5F2770314A7CD293819B45C73AAFB45B35BA61ACAA1C1C7E7855C58C15BC331339661262CC762340413D68D77DA5B42298546CBE6573AF60CEB2F504B0304140006080800CC70623B449FB9BD290100001202000031
310
0000006662782F36394639363044362D344446342D343946362D394244322D3234314243333846323333332F636F72652E786D6C8D515B6EC32010BC0AE22B55850D98B871848994463E412FE002495162B07854397EA176A4F62F3F2C9A9D991D587EB84F37F0AD7D30CEF6905418026DA553C65E7A98E219ED203808EE9D
310
8B7F6810D871D23D2C3014FCE25D9A57483A1BB58D19B54EE9151C43D0110279CB971E06F9A5A7B11A53CC8C70ADE6515EC78BAE4895DB992778883E0700CB907242D17643D7E2538BD869608875438BBAE38922CAC8F1BDD90DB4691A5E2F42C153326A951B95E398B3D1FE599322163C9AE9115F7A3D46ADA0A018778810
310
84E907617BDCEE297BC5BB3DC6BC2EF47FA234AB2745C9D8D8D035EE220B50105E2F0DC1954B9FB747187D9F9D8FA0CCDB042D5FA0C015C65B42DF78BD10F3F3B363CB56C7109DCFDFBBB97E662ED92EB62D13BC2E1BCAE5777DB9966D8A1F504B0304140006080800CC70623BAD7543B64E01000033030000300000006662
310
782F36394639363044362D344446342D343946362D394244322D3234314243333846323333332F636E782E786D6CD593CD6EC32010845F0571AD6CE3D48AD20813A9873E410FBD12D82434182C7EAAE6EDBB2424CD25871E7B41D6EC30B3FA84F9E67BB2E40B4234DE8DB46F1925E094D7C6ED479AD3AE5951B2113C789FEE
310
6C943839C1488B4C05DF079FE72A69D8C96C13AAD6B8631503449F83828872B949AC57D26200B826A308D316B4064D6E46FCDA41C05550DC9E483A00797BFD207EFB092A45DE9514C1BBD22178396BD39D891265658C238DEA00936C654E5E433CB65A26D9F6EDB5EBC14EBF49A45CB856E66048291F6939A9A81BB5C89177
310
38143CA680F4AA299D66A042CEB3354A2684DC9D8D178FE0D9B8B41CAAD720F880EE7EF93C0C18769E099ECC04D5A102C8049A8A05632F4DDF376CF1DE0F6BB65C2F8627B65A33C6BB62177CEBBDAD973006829F89F22E814B54F4BC2BE347F8AA8F681390B50FA73F804400B5F542E796F19FF974E7F78DB802FE05E20750
310
4B0304140006080800CC70623B8D05915C650500003B100000340000006662782F36394639363044362D344446342D343946362D394244322D3234314243333846323333332F6F626A656374732E786D6CAD575B6FA33814FE2B887D06429276DA1565D4266D158D3A339A6846FB502932E050B66023DB74D2FDF5FB190C01
310
9276B2973C046C8ECFF53B17071F77456EBD502133CEAE6CDF9DD81665314F32965ED995DA3A17B6F5310C04E7AA47665B8C14F4CAD6DB7618A48257A5D94AE89654B91AEDDEDDFC61C998326A5B714EA4BCB265FC440BE2924AF184CA6737218AB8E976E7FA6E4338649B0A523E8D98964450A6A029F619B8588D52FE7039
310
B1BD30F0F4F730D0FF866AF6369557DB33949F31A9088B0F848DD8CCFCF9F2767A76E99CCDE733677E3EF59D9BBB9BA5E37F984D16E78BC5E5F5ED25044B25C0C96822E8D60EEFE11B91C581D77CEA34368A1F5329E68CD1B8B61F16D63A1B8E092D294B10C78C4A48EB593D192E7DED9BDEE7995E1B91FDEDD3ACEA9FE831
310
6A756F9F7D4D79F4274C90A7A04248AA51D5F8C718DAE06FB2F75AC4796EBE65D22A88A22223B995679120E2D50E41AA49C260C046A35368846B0BECD0DFF3EBEB8AD4F835768F69B9ADF25C43D30E6B646F807FAA64AD59F61715C7A54127C4AACA98BA3006A9D792DAE165E0D59B61A01FB3A9F9D838D2DAE62445C86166
310
F37564E842E7DE6A69879FEEA2DD5AE7E371E1A5E025154AC307D06A03D73EB5978C58FFA4C8E9033066E0F3BD53BEC1F39F91BE7B55103791EDE6BBB991A2046172CB4581D8B893FA674DDA17A77B3B7C413D1B511FD2743BFF8A38F03A658705E3ADF8015C3A3417FF3D7E439FF591DA0B5F18BC20C1B8981957AE6392A3
310
F43C640C01D1A0B4728E2DD4F26DB4B3C3152A252A3B4E913CEC1C72F012782FF88EFF8637AA552DBEF76408E8A8DE9E50F9E1CB3A2DA0DB1B6039A893B56063DC5B3E3FFB5F72E67AB9FEB4AEC496C4F4C1149625DD662C53E89D7BF0F6151A046260D1337DFDC94502430F83B0EE07A130A224BCAD7DAE1D9FB6CD422FF6
310
920702629C4BB9AE79C12F243C6432A6794E18E5552BA56B431AAB5D91317302B2B071E86C3A42B1A02F999E24061403B5D0EB639195DA655DD3EBEAB4FB862DDF579F014AD0E73C22F99E28DA57FB98E75C6CA2D74D53086D600F4786E0FE3144B771A8A7B900F03594DB8A633CBC49B2EDB69228BB479CF863B5E807AAAB
310
23872F6DFEB4129B949CA33823F58830E86D65621E10047D9DB34D862E8EAC3C2ABC2F7B2C40D67CDFE01F5545B92105AF983AC54D93D69E56FB8E797F88913F898A9FEC705D3F9D1B54EC8426FB500D40A03BD0119B06E1B95DDC7EB8F6975367793EBD70E66733DFB9BC982F9CE564727731999F5D4ECFCE3B8D6A4DC2A0
310
6D50FD148437D110834A64C6CDDF57FBACB5C307A2A477DFE4939736CFEF2B175371E0E10CF0DD1D5C15654E0BCA14D1E87DD02FF93782A162C0A3D95F1524A52770F972BF1EE9809D13CE7DD599467F8ECE9ADD85CE85A34CD45355448C64F9E8A031DC2D596ACC6E5DD93D9B82DE2EF5CAF81363A8E47996A0DE24564A79
310
4115AACE09C55E14540231FDA13C319787134EBF34E3A022514E5B4D9E0826E25C02D5805B15ABE1BEF51B26383D445DD9E875EE33FE4C22DA16427D65A3BCA92CA6D28DD01DF5DC53330704308475351050232CCD31583787BA75774AFB06E5070DD0C8EF484E19968C5D83BA5B90B244D31E54D55A372320FE4786B7EA58
310
44E135AA5467CB7EA333A61683CC6A8C3257034C10CF46F40EF9F5BE59BE5BD30C3C72D235E95D10345C1D45445A5F0BB47E46A5EBE5570F9380B5FA629579952296A773720405982B9DE04011506178964401AA8BDF1FBF0A8EAB6861DD6580C0E38217056766716DAEB2D6FA0917D3E4116581EADB879C4E7CFFB11EFACD
310
3D641311495D92C8676CB409A72D18610D803CE8A626049E8EC1887CB5B44CC39883690DDA8399B4B9855B481E7D71D4A9D22F96E5BB73BF5793020C02137BF837504B0304140006080000CC70623B000000000000000000000000350000006662782F36394639363044362D344446342D343946362D394244322D32343142
310
43333846323333332F76657274696365732E62696E504B0304140006080800CC70623BF270F1330600000004000000360000006662782F36394639363044362D344446342D343946362D394244322D3234314243333846323333332F747269616E676C65732E62696E636660600000504B0304140006080000CC70623B0000
310
00000000000000000000370000006662782F36394639363044362D344446342D343946362D394244322D3234314243333846323333332F617474726962757465732E62696E504B0304140006080800CC70623B08DA0BD19000000041010000360000006662782F36394639363044362D344446342D343946362D394244322D
310
3234314243333846323333332F6469726563746F72792E786D6C858F410AC3201045AF22B36F53E9A60B35CBEEBAE80D244E44489C6234F4F835464A48035D0DF398FF9F8AF63D0E6CC63039F212F8F9020C7D47C6792B21C5FE7403D62A1188E2E60C98D7234A5830286103A55745067B9D86B8A3CF9C7F90C11DE607FB14
310
4396D7B6A82D282E9A152AD114D5EF2CB866EEE831B8EEA07A7BB5A8D7D61A2BAAEB7FD5F70921FF497D00504B0304140006080800CC70623BCA768048FE000000A00100003B0000006662782F36394639363044362D344446342D343946362D394244322D3234314243333846323333332F7265736F75726365732F636F72
310
652E786D6C8D50596E833010BD0A9ADFCA60D600328E9AA639412F609909B1126CE4A5EAF16B0295DABFFECC8CDEA2797AECF8353F924FB44E193D409E5248504B332A3D0D10FC95B4901C39B3C6F85F3248B49871801506CE266BC2B243D2688FDA47549B11775038871E12F988C7004EDE7016A9083E2ADC3D5D84BC8B09
310
D33C8D74D471E6BC8D0192EDC93A815B742658898E651BCB59086ADC356A8C3FD555A1055ED7E7E254D615792D0F075295F585746FF53B694EE78A565DD736979A65AB9933AFE69F8CD2A2F038022F28ED489E135A7CE4554F9BBEA85E68DB53CAB255FEC71496F19FA6A0B42F8B3DEE6673C0F318E4497096AD7DC5F52C33
310
EEB55BFE0D504B010214000A0000080000CC70623B3DEE336E79000000790000001B00000000000000000000000000000000006175746F6465736B2D64657369676E2D7061636B6167652E786D6C504B01021400140006080800CC70623BD486FD9CA0000000F40000001300000000000000000000000000B20000005B436F
310
6E74656E745F54797065735D2E786D6C504B01021400140006080800CC70623BD9DDAED0EC0000007C010000080000000000000000000000000083010000636F72652E786D6C504B01021400140006080800CC70623B55019EA25F0000007C000000070000000000000000000000000095020000636E782E786D6C504B0102
310
1400140006080800CC70623BA24EB22D72010000D40300000C00000000000000000000000000190300006662782F636F72652E786D6C504B01021400140006080800CC70623B408A7D3B7C0000009D0000000B00000000000000000000000000B50400006662782F636E782E786D6C504B01021400140006080800CC70623B
310
449FB9BD290100001202000031000000000000000000000000005A0500006662782F36394639363044362D344446342D343946362D394244322D3234314243333846323333332F636F72652E786D6C504B01021400140006080800CC70623BAD7543B64E010000330300003000000000000000000000000000D20600006662
310
782F36394639363044362D344446342D343946362D394244322D3234314243333846323333332F636E782E786D6C504B01021400140006080800CC70623B8D05915C650500003B10000034000000000000000000000000006E0800006662782F36394639363044362D344446342D343946362D394244322D32343142433338
310
46323333332F6F626A656374732E786D6C504B01021400140006080000CC70623B0000000000000000000000003500000000000000000000000000250E00006662782F36394639363044362D344446342D343946362D394244322D3234314243333846323333332F76657274696365732E62696E504B010214001400060808
310
00CC70623BF270F13306000000040000003600000000000000000000000000780E00006662782F36394639363044362D344446342D343946362D394244322D3234314243333846323333332F747269616E676C65732E62696E504B01021400140006080000CC70623B00000000000000000000000037000000000000000000
310
00000000D20E00006662782F36394639363044362D344446342D343946362D394244322D3234314243333846323333332F617474726962757465732E62696E504B01021400140006080800CC70623B08DA0BD190000000410100003600000000000000000000000000270F00006662782F36394639363044362D344446342D
310
343946362D394244322D3234314243333846323333332F6469726563746F72792E786D6C504B01021400140006080800CC70623BCA768048FE000000A00100003B000000000000000000000000000B1000006662782F36394639363044362D344446342D343946362D394244322D3234314243333846323333332F7265736F
310
75726365732F636F72652E786D6C504B0506000000000E000E0080040000621100000000
  0
XRECORD
  5
176
102
{ACAD_REACTORS
330
173
102
}
330
173
100
AcDbXrecord
280
     1
270
     1
271
     1
  0
XRECORD
  5
177
102
{ACAD_REACTORS
330
173
102
}
330
173
100
AcDbXrecord
280
     1
270
     1
271
     1
  0
XRECORD
  5
D5D
102
{ACAD_REACTORS
330
D5C
102
}
330
D5C
100
AcDbXrecord
280
     1
102
ACAD_ROUNDTRIP_2012_MLEADER_STYLE
298
     1
  0
XRECORD
  5
D6F
102
{ACAD_REACTORS
330
D6E
102
}
330
D6E
100
AcDbXrecord
280
     1
102
DISPLAYNAME
  1
Metric50
102
FLAGS
 90
        0
  0
CELLSTYLEMAP
  5
D2F
102
{ACAD_REACTORS
330
162
102
}
330
162
100
AcDbCellStyleMap
 90
        3
300
CELLSTYLE
  1
TABLEFORMAT_BEGIN
 90
        5
170
     1
 91
        0
 92
    32768
 62
   257
 93
        1
300
CONTENTFORMAT
  1
CONTENTFORMAT_BEGIN
 90
        0
 91
        0
 92
      512
 93
        0
300

 40
0.0
140
1.0
 94
        5
 62
     0
340
11
144
6.0
309
CONTENTFORMAT_END
171
     1
301
MARGIN
  1
CELLMARGIN_BEGIN
 40
1.5
 40
1.5
 40
1.5
 40
1.5
 40
4.5
 40
4.5
309
CELLMARGIN_END
 94
        6
 95
        1
302
GRIDFORMAT
  1
GRIDFORMAT_BEGIN
 90
        0
 91
        1
 62
     0
 92
       -2
340
14
 93
        0
 40
1.125
309
GRIDFORMAT_END
 95
        2
302
GRIDFORMAT
  1
GRIDFORMAT_BEGIN
 90
        0
 91
        1
 62
     0
 92
       -2
340
14
 93
        0
 40
1.125
309
GRIDFORMAT_END
 95
        4
302
GRIDFORMAT
  1
GRIDFORMAT_BEGIN
 90
        0
 91
        1
 62
     0
 92
       -2
340
14
 93
        0
 40
1.125
309
GRIDFORMAT_END
 95
        8
302
GRIDFORMAT
  1
GRIDFORMAT_BEGIN
 90
        0
 91
        1
 62
     0
 92
       -2
340
14
 93
        0
 40
1.125
309
GRIDFORMAT_END
 95
       16
302
GRIDFORMAT
  1
GRIDFORMAT_BEGIN
 90
        0
 91
        1
 62
     0
 92
       -2
340
14
 93
        0
 40
1.125
309
GRIDFORMAT_END
 95
       32
302
GRIDFORMAT
  1
GRIDFORMAT_BEGIN
 90
        0
 91
        1
 62
     0
 92
       -2
340
14
 93
        0
 40
1.125
309
GRIDFORMAT_END
309
TABLEFORMAT_END
  1
CELLSTYLE_BEGIN
 90
        1
 91
        1
300
_TITLE
309
CELLSTYLE_END
300
CELLSTYLE
  1
TABLEFORMAT_BEGIN
 90
        5
170
     1
 91
        0
 92
        0
 62
   257
 93
        1
300
CONTENTFORMAT
  1
CONTENTFORMAT_BEGIN
 90
        0
 91
        0
 92
      512
 93
        0
300

 40
0.0
140
1.0
 94
        5
 62
     0
340
11
144
4.5
309
CONTENTFORMAT_END
171
     1
301
MARGIN
  1
CELLMARGIN_BEGIN
 40
1.5
 40
1.5
 40
1.5
 40
1.5
 40
4.5
 40
4.5
309
CELLMARGIN_END
 94
        6
 95
        1
302
GRIDFORMAT
  1
GRIDFORMAT_BEGIN
 90
        0
 91
        1
 62
     0
 92
       -2
340
14
 93
        0
 40
1.125
309
GRIDFORMAT_END
 95
        2
302
GRIDFORMAT
  1
GRIDFORMAT_BEGIN
 90
        0
 91
        1
 62
     0
 92
       -2
340
14
 93
        0
 40
1.125
309
GRIDFORMAT_END
 95
        4
302
GRIDFORMAT
  1
GRIDFORMAT_BEGIN
 90
        0
 91
        1
 62
     0
 92
       -2
340
14
 93
        0
 40
1.125
309
GRIDFORMAT_END
 95
        8
302
GRIDFORMAT
  1
GRIDFORMAT_BEGIN
 90
        0
 91
        1
 62
     0
 92
       -2
340
14
 93
        0
 40
1.125
309
GRIDFORMAT_END
 95
       16
302
GRIDFORMAT
  1
GRIDFORMAT_BEGIN
 90
        0
 91
        1
 62
     0
 92
       -2
340
14
 93
        0
 40
1.125
309
GRIDFORMAT_END
 95
       32
302
GRIDFORMAT
  1
GRIDFORMAT_BEGIN
 90
        0
 91
        1
 62
     0
 92
       -2
340
14
 93
        0
 40
1.125
309
GRIDFORMAT_END
309
TABLEFORMAT_END
  1
CELLSTYLE_BEGIN
 90
        2
 91
        1
300
_HEADER
309
CELLSTYLE_END
300
CELLSTYLE
  1
TABLEFORMAT_BEGIN
 90
        5
170
     1
 91
        0
 92
        0
 62
   257
 93
        1
300
CONTENTFORMAT
  1
CONTENTFORMAT_BEGIN
 90
        0
 91
        0
 92
      512
 93
        0
300

 40
0.0
140
1.0
 94
        2
 62
     0
340
11
144
4.5
309
CONTENTFORMAT_END
171
     1
301
MARGIN
  1
CELLMARGIN_BEGIN
 40
1.5
 40
1.5
 40
1.5
 40
1.5
 40
4.5
 40
4.5
309
CELLMARGIN_END
 94
        6
 95
        1
302
GRIDFORMAT
  1
GRIDFORMAT_BEGIN
 90
        0
 91
        1
 62
     0
 92
       -2
340
14
 93
        0
 40
1.125
309
GRIDFORMAT_END
 95
        2
302
GRIDFORMAT
  1
GRIDFORMAT_BEGIN
 90
        0
 91
        1
 62
     0
 92
       -2
340
14
 93
        0
 40
1.125
309
GRIDFORMAT_END
 95
        4
302
GRIDFORMAT
  1
GRIDFORMAT_BEGIN
 90
        0
 91
        1
 62
     0
 92
       -2
340
14
 93
        0
 40
1.125
309
GRIDFORMAT_END
 95
        8
302
GRIDFORMAT
  1
GRIDFORMAT_BEGIN
 90
        0
 91
        1
 62
     0
 92
       -2
340
14
 93
        0
 40
1.125
309
GRIDFORMAT_END
 95
       16
302
GRIDFORMAT
  1
GRIDFORMAT_BEGIN
 90
        0
 91
        1
 62
     0
 92
       -2
340
14
 93
        0
 40
1.125
309
GRIDFORMAT_END
 95
       32
302
GRIDFORMAT
  1
GRIDFORMAT_BEGIN
 90
        0
 91
        1
 62
     0
 92
       -2
340
14
 93
        0
 40
1.125
309
GRIDFORMAT_END
309
TABLEFORMAT_END
  1
CELLSTYLE_BEGIN
 90
        3
 91
        2
300
_DATA
309
CELLSTYLE_END
  0
XRECORD
  5
D34
102
{ACAD_REACTORS
330
162
102
}
330
162
100
AcDbXrecord
280
     1
102
ACAD_ROUNDTRIP_PRE2007_TABLESTYLE
 90
      512
 91
        0
  1

 92
      512
 93
        0
  2

 94
      512
 95
        0
  3

  0
XRECORD
  5
D47
102
{ACAD_REACTORS
330
D46
102
}
330
D46
100
AcDbXrecord
280
     1
102
RTVSPost2010Prop28
280
     1
102
RTVSPost2010PropOp28
 70
     1
102
RTVSPost2010Prop29
280
     1
102
RTVSPost2010PropOp29
 70
     1
102
RTVSPost2010Prop30
280
     0
102
RTVSPost2010PropOp30
 70
     1
102
RTVSPost2010Prop31
280
     0
102
RTVSPost2010PropOp31
 70
     1
102
RTVSPost2010Prop32
280
     0
102
RTVSPost2010PropOp32
 70
     1
102
RTVSPost2010Prop33
280
     0
102
RTVSPost2010PropOp33
 70
     1
102
RTVSPost2010Prop34
280
     0
102
RTVSPost2010PropOp34
 70
     1
102
RTVSPost2010Prop35
280
     0
102
RTVSPost2010PropOp35
 70
     1
102
RTVSPost2010Prop36
280
     0
102
RTVSPost2010PropOp36
 70
     1
102
RTVSPost2010Prop37
 90
       50
102
RTVSPost2010PropOp37
 70
     1
102
RTVSPost2010Prop38
140
0.0
102
RTVSPost2010PropOp38
 70
     1
102
RTVSPost2010Prop39
140
1.0
102
RTVSPost2010PropOp39
 70
     1
102
RTVSPost2010Prop40
 90
        0
102
RTVSPost2010PropOp40
 70
     1
102
RTVSPost2010Prop41ColorIndex
 90
       18
102
RTVSPost2010Prop41ColorRGB
 90
        0
102
RTVSPost2010PropOp41
 70
     1
102
RTVSPost2010Prop42
 90
       50
102
RTVSPost2010PropOp42
 70
     1
102
RTVSPost2010Prop43
 90
        3
102
RTVSPost2010PropOp43
 70
     1
102
RTVSPost2010Prop44ColorIndex
 90
        5
102
RTVSPost2010Prop44ColorRGB
 90
      255
102
RTVSPost2010PropOp44
 70
     1
102
RTVSPost2010Prop45
280
     0
102
RTVSPost2010PropOp45
 70
     1
102
RTVSPost2010Prop46
 90
       50
102
RTVSPost2010PropOp46
 70
     1
102
RTVSPost2010Prop47
 90
       50
102
RTVSPost2010PropOp47
 70
     1
102
RTVSPost2010Prop48
 90
       50
102
RTVSPost2010PropOp48
 70
     1
102
RTVSPost2010Prop49
280
     0
102
RTVSPost2010PropOp49
 70
     1
102
RTVSPost2010Prop50
 90
       50
102
RTVSPost2010PropOp50
 70
     1
102
RTVSPost2010Prop51ColorIndex
 90
      256
102
RTVSPost2010Prop51ColorRGB
 90
-16777216
102
RTVSPost2010PropOp51
 70
     0
102
RTVSPost2010Prop52
140
1.0
102
RTVSPost2010PropOp52
 70
     0
102
RTVSPost2010Prop53
 90
        2
102
RTVSPost2010PropOp53
 70
     1
102
RTVSPost2010Prop54
  1
strokes_ogs.tif
102
RTVSPost2010PropOp54
 70
     1
102
RTVSPost2010Prop55
280
     0
102
RTVSPost2010PropOp55
 70
     1
102
RTVSPost2010Prop56
140
1.0
102
RTVSPost2010PropOp56
 70
     1
102
RTVSPost2010Prop57
140
1.0
102
RTVSPost2010PropOp57
 70
     1
102
RTVSPropertyOp0
 70
     1
102
RTVSPropertyOp1
 70
     1
102
RTVSPropertyOp2
 70
     1
102
RTVSPropertyOp3
 70
     1
102
RTVSPropertyOp4
 70
     1
102
RTVSPropertyOp5
 70
     1
102
RTVSPropertyOp6
 70
     1
102
RTVSPropertyOp7
 70
     1
102
RTVSPropertyOp8
 70
     1
102
RTVSPropertyOp9
 70
     1
102
RTVSPropertyOp10
 70
     1
102
RTVSPropertyOp11
 70
     1
102
RTVSPropertyOp12
 70
     1
102
RTVSPropertyOp13
 70
     1
102
RTVSPropertyOp14
 70
     1
102
RTVSPropertyOp15
 70
     1
102
RTVSPropertyOp16
 70
     1
102
RTVSPropertyOp17
 70
     1
102
RTVSPropertyOp18
 70
     1
102
RTVSPropertyOp19
 70
     1
102
RTVSPropertyOp20
 70
     1
102
RTVSPropertyOp21
 70
     1
102
RTVSPropertyOp22
 70
     1
102
RTVSPropertyOp23
 70
     1
102
RTVSPropertyOp24
 70
     1
102
RTVSPropertyOp25
 70
     1
102
RTVSPropertyOp26
 70
     1
102
RTVSPropertyOp27
 70
     1
102
RTVSPropertyOp28
 70
     1
102
RTVSPropertyOp29
 70
     1
102
RTVSPropertyOp30
 70
     1
102
RTVSPropertyOp31
 70
     1
102
RTVSPropertyOp32
 70
     1
102
RTVSPropertyOp33
 70
     1
102
RTVSPropertyOp34
 70
     1
102
RTVSPropertyOp35
 70
     1
102
RTVSPropertyOp36
 70
     1
102
RTVSPropertyOp37
 70
     1
102
RTVSPropertyOp38
 70
     1
102
RTVSPropertyOp39
 70
     1
102
RTVSPropertyOp40
 70
     1
102
RTVSPropertyOp41
 70
     1
102
RTVSPropertyOp42
 70
     1
102
RTVSPropertyOp43
 70
     1
102
RTVSPropertyOp44
 70
     1
102
RTVSPropertyOp45
 70
     1
102
RTVSPropertyOp46
 70
     1
102
RTVSPropertyOp47
 70
     1
102
RTVSPropertyOp48
 70
     1
102
RTVSPropertyOp49
 70
     1
102
RTVSPropertyOp50
 70
     1
102
RTVSPropertyOp51
 70
     0
102
RTVSPropertyOp52
 70
     0
102
RTVSPropertyOp53
 70
     1
102
RTVSPropertyOp54
 70
     1
102
RTVSPropertyOp55
 70
     1
102
RTVSPropertyOp56
 70
     1
102
RTVSPropertyOp57
 70
     1
102
RTVSPropertyOp58
 70
     1
102
RTVSPropertyOp59
 70
     1
102
RTVSPropertyOp60
 70
     1
102
RTVSPropertyOp61
 70
     1
102
RTVSPropertyOp62
 70
     1
  0
XRECORD
  5
D45
102
{ACAD_REACTORS
330
D44
102
}
330
D44
100
AcDbXrecord
280
     1
102
RTVSPost2010Prop28
280
     0
102
RTVSPost2010PropOp28
 70
     1
102
RTVSPost2010Prop29
280
     1
102
RTVSPost2010PropOp29
 70
     1
102
RTVSPost2010Prop30
280
     1
102
RTVSPost2010PropOp30
 70
     1
102
RTVSPost2010Prop31
280
     0
102
RTVSPost2010PropOp31
 70
     1
102
RTVSPost2010Prop32
280
     0
102
RTVSPost2010PropOp32
 70
     1
102
RTVSPost2010Prop33
280
     0
102
RTVSPost2010PropOp33
 70
     1
102
RTVSPost2010Prop34
280
     0
102
RTVSPost2010PropOp34
 70
     1
102
RTVSPost2010Prop35
280
     0
102
RTVSPost2010PropOp35
 70
     1
102
RTVSPost2010Prop36
280
     0
102
RTVSPost2010PropOp36
 70
     1
102
RTVSPost2010Prop37
 90
       50
102
RTVSPost2010PropOp37
 70
     1
102
RTVSPost2010Prop38
140
0.0
102
RTVSPost2010PropOp38
 70
     1
102
RTVSPost2010Prop39
140
1.0
102
RTVSPost2010PropOp39
 70
     1
102
RTVSPost2010Prop40
 90
        0
102
RTVSPost2010PropOp40
 70
     1
102
RTVSPost2010Prop41ColorIndex
 90
       18
102
RTVSPost2010Prop41ColorRGB
 90
        0
102
RTVSPost2010PropOp41
 70
     1
102
RTVSPost2010Prop42
 90
       50
102
RTVSPost2010PropOp42
 70
     1
102
RTVSPost2010Prop43
 90
        3
102
RTVSPost2010PropOp43
 70
     1
102
RTVSPost2010Prop44ColorIndex
 90
        5
102
RTVSPost2010Prop44ColorRGB
 90
      255
102
RTVSPost2010PropOp44
 70
     1
102
RTVSPost2010Prop45
280
     0
102
RTVSPost2010PropOp45
 70
     1
102
RTVSPost2010Prop46
 90
       50
102
RTVSPost2010PropOp46
 70
     1
102
RTVSPost2010Prop47
 90
       50
102
RTVSPost2010PropOp47
 70
     1
102
RTVSPost2010Prop48
 90
       50
102
RTVSPost2010PropOp48
 70
     1
102
RTVSPost2010Prop49
280
     0
102
RTVSPost2010PropOp49
 70
     1
102
RTVSPost2010Prop50
 90
       50
102
RTVSPost2010PropOp50
 70
     1
102
RTVSPost2010Prop51ColorIndex
 90
      256
102
RTVSPost2010Prop51ColorRGB
 90
-16777216
102
RTVSPost2010PropOp51
 70
     0
102
RTVSPost2010Prop52
140
1.0
102
RTVSPost2010PropOp52
 70
     0
102
RTVSPost2010Prop53
 90
        2
102
RTVSPost2010PropOp53
 70
     1
102
RTVSPost2010Prop54
  1
strokes_ogs.tif
102
RTVSPost2010PropOp54
 70
     1
102
RTVSPost2010Prop55
280
     0
102
RTVSPost2010PropOp55
 70
     1
102
RTVSPost2010Prop56
140
1.0
102
RTVSPost2010PropOp56
 70
     1
102
RTVSPost2010Prop57
140
1.0
102
RTVSPost2010PropOp57
 70
     1
102
RTVSPropertyOp0
 70
     1
102
RTVSPropertyOp1
 70
     1
102
RTVSPropertyOp2
 70
     1
102
RTVSPropertyOp3
 70
     1
102
RTVSPropertyOp4
 70
     1
102
RTVSPropertyOp5
 70
     1
102
RTVSPropertyOp6
 70
     1
102
RTVSPropertyOp7
 70
     1
102
RTVSPropertyOp8
 70
     1
102
RTVSPropertyOp9
 70
     1
102
RTVSPropertyOp10
 70
     1
102
RTVSPropertyOp11
 70
     1
102
RTVSPropertyOp12
 70
     1
102
RTVSPropertyOp13
 70
     1
102
RTVSPropertyOp14
 70
     1
102
RTVSPropertyOp15
 70
     1
102
RTVSPropertyOp16
 70
     1
102
RTVSPropertyOp17
 70
     1
102
RTVSPropertyOp18
 70
     1
102
RTVSPropertyOp19
 70
     1
102
RTVSPropertyOp20
 70
     1
102
RTVSPropertyOp21
 70
     1
102
RTVSPropertyOp22
 70
     1
102
RTVSPropertyOp23
 70
     1
102
RTVSPropertyOp24
 70
     1
102
RTVSPropertyOp25
 70
     1
102
RTVSPropertyOp26
 70
     1
102
RTVSPropertyOp27
 70
     1
102
RTVSPropertyOp28
 70
     1
102
RTVSPropertyOp29
 70
     1
102
RTVSPropertyOp30
 70
     1
102
RTVSPropertyOp31
 70
     1
102
RTVSPropertyOp32
 70
     1
102
RTVSPropertyOp33
 70
     1
102
RTVSPropertyOp34
 70
     1
102
RTVSPropertyOp35
 70
     1
102
RTVSPropertyOp36
 70
     1
102
RTVSPropertyOp37
 70
     1
102
RTVSPropertyOp38
 70
     1
102
RTVSPropertyOp39
 70
     1
102
RTVSPropertyOp40
 70
     1
102
RTVSPropertyOp41
 70
     1
102
RTVSPropertyOp42
 70
     1
102
RTVSPropertyOp43
 70
     1
102
RTVSPropertyOp44
 70
     1
102
RTVSPropertyOp45
 70
     1
102
RTVSPropertyOp46
 70
     1
102
RTVSPropertyOp47
 70
     1
102
RTVSPropertyOp48
 70
     1
102
RTVSPropertyOp49
 70
     1
102
RTVSPropertyOp50
 70
     1
102
RTVSPropertyOp51
 70
     0
102
RTVSPropertyOp52
 70
     0
102
RTVSPropertyOp53
 70
     1
102
RTVSPropertyOp54
 70
     1
102
RTVSPropertyOp55
 70
     1
102
RTVSPropertyOp56
 70
     1
102
RTVSPropertyOp57
 70
     1
102
RTVSPropertyOp58
 70
     1
102
RTVSPropertyOp59
 70
     1
102
RTVSPropertyOp60
 70
     1
102
RTVSPropertyOp61
 70
     1
102
RTVSPropertyOp62
 70
     1
  0
XRECORD
  5
D53
102
{ACAD_REACTORS
330
D52
102
}
330
D52
100
AcDbXrecord
280
     1
102
RTVSPost2010Prop28
280
     0
102
RTVSPost2010PropOp28
 70
     1
102
RTVSPost2010Prop29
280
     1
102
RTVSPost2010PropOp29
 70
     1
102
RTVSPost2010Prop30
280
     1
102
RTVSPost2010PropOp30
 70
     1
102
RTVSPost2010Prop31
280
     0
102
RTVSPost2010PropOp31
 70
     1
102
RTVSPost2010Prop32
280
     0
102
RTVSPost2010PropOp32
 70
     1
102
RTVSPost2010Prop33
280
     0
102
RTVSPost2010PropOp33
 70
     1
102
RTVSPost2010Prop34
280
     0
102
RTVSPost2010PropOp34
 70
     1
102
RTVSPost2010Prop35
280
     0
102
RTVSPost2010PropOp35
 70
     1
102
RTVSPost2010Prop36
280
     0
102
RTVSPost2010PropOp36
 70
     1
102
RTVSPost2010Prop37
 90
       50
102
RTVSPost2010PropOp37
 70
     1
102
RTVSPost2010Prop38
140
0.0
102
RTVSPost2010PropOp38
 70
     1
102
RTVSPost2010Prop39
140
1.0
102
RTVSPost2010PropOp39
 70
     1
102
RTVSPost2010Prop40
 90
        0
102
RTVSPost2010PropOp40
 70
     1
102
RTVSPost2010Prop41ColorIndex
 90
       18
102
RTVSPost2010Prop41ColorRGB
 90
        0
102
RTVSPost2010PropOp41
 70
     1
102
RTVSPost2010Prop42
 90
       50
102
RTVSPost2010PropOp42
 70
     1
102
RTVSPost2010Prop43
 90
        3
102
RTVSPost2010PropOp43
 70
     1
102
RTVSPost2010Prop44ColorIndex
 90
        5
102
RTVSPost2010Prop44ColorRGB
 90
      255
102
RTVSPost2010PropOp44
 70
     1
102
RTVSPost2010Prop45
280
     0
102
RTVSPost2010PropOp45
 70
     1
102
RTVSPost2010Prop46
 90
       50
102
RTVSPost2010PropOp46
 70
     1
102
RTVSPost2010Prop47
 90
       50
102
RTVSPost2010PropOp47
 70
     1
102
RTVSPost2010Prop48
 90
       50
102
RTVSPost2010PropOp48
 70
     1
102
RTVSPost2010Prop49
280
     0
102
RTVSPost2010PropOp49
 70
     1
102
RTVSPost2010Prop50
 90
       50
102
RTVSPost2010PropOp50
 70
     1
102
RTVSPost2010Prop51ColorIndex
 90
      256
102
RTVSPost2010Prop51ColorRGB
 90
-16777216
102
RTVSPost2010PropOp51
 70
     0
102
RTVSPost2010Prop52
140
1.0
102
RTVSPost2010PropOp52
 70
     0
102
RTVSPost2010Prop53
 90
        2
102
RTVSPost2010PropOp53
 70
     1
102
RTVSPost2010Prop54
  1
strokes_ogs.tif
102
RTVSPost2010PropOp54
 70
     1
102
RTVSPost2010Prop55
280
     0
102
RTVSPost2010PropOp55
 70
     1
102
RTVSPost2010Prop56
140
1.0
102
RTVSPost2010PropOp56
 70
     1
102
RTVSPost2010Prop57
140
1.0
102
RTVSPost2010PropOp57
 70
     1
102
RTVSPropertyOp0
 70
     1
102
RTVSPropertyOp1
 70
     1
102
RTVSPropertyOp2
 70
     1
102
RTVSPropertyOp3
 70
     1
102
RTVSPropertyOp4
 70
     1
102
RTVSPropertyOp5
 70
     1
102
RTVSPropertyOp6
 70
     1
102
RTVSPropertyOp7
 70
     1
102
RTVSPropertyOp8
 70
     1
102
RTVSPropertyOp9
 70
     1
102
RTVSPropertyOp10
 70
     1
102
RTVSPropertyOp11
 70
     1
102
RTVSPropertyOp12
 70
     1
102
RTVSPropertyOp13
 70
     1
102
RTVSPropertyOp14
 70
     1
102
RTVSPropertyOp15
 70
     1
102
RTVSPropertyOp16
 70
     1
102
RTVSPropertyOp17
 70
     1
102
RTVSPropertyOp18
 70
     1
102
RTVSPropertyOp19
 70
     1
102
RTVSPropertyOp20
 70
     1
102
RTVSPropertyOp21
 70
     1
102
RTVSPropertyOp22
 70
     1
102
RTVSPropertyOp23
 70
     1
102
RTVSPropertyOp24
 70
     1
102
RTVSPropertyOp25
 70
     1
102
RTVSPropertyOp26
 70
     1
102
RTVSPropertyOp27
 70
     1
102
RTVSPropertyOp28
 70
     1
102
RTVSPropertyOp29
 70
     1
102
RTVSPropertyOp30
 70
     1
102
RTVSPropertyOp31
 70
     1
102
RTVSPropertyOp32
 70
     1
102
RTVSPropertyOp33
 70
     1
102
RTVSPropertyOp34
 70
     1
102
RTVSPropertyOp35
 70
     1
102
RTVSPropertyOp36
 70
     1
102
RTVSPropertyOp37
 70
     1
102
RTVSPropertyOp38
 70
     1
102
RTVSPropertyOp39
 70
     1
102
RTVSPropertyOp40
 70
     1
102
RTVSPropertyOp41
 70
     1
102
RTVSPropertyOp42
 70
     1
102
RTVSPropertyOp43
 70
     1
102
RTVSPropertyOp44
 70
     1
102
RTVSPropertyOp45
 70
     1
102
RTVSPropertyOp46
 70
     1
102
RTVSPropertyOp47
 70
     1
102
RTVSPropertyOp48
 70
     1
102
RTVSPropertyOp49
 70
     1
102
RTVSPropertyOp50
 70
     1
102
RTVSPropertyOp51
 70
     0
102
RTVSPropertyOp52
 70
     0
102
RTVSPropertyOp53
 70
     1
102
RTVSPropertyOp54
 70
     1
102
RTVSPropertyOp55
 70
     1
102
RTVSPropertyOp56
 70
     1
102
RTVSPropertyOp57
 70
     1
102
RTVSPropertyOp58
 70
     1
102
RTVSPropertyOp59
 70
     1
102
RTVSPropertyOp60
 70
     1
102
RTVSPropertyOp61
 70
     1
102
RTVSPropertyOp62
 70
     1
  0
XRECORD
  5
D5B
102
{ACAD_REACTORS
330
D5A
102
}
330
D5A
100
AcDbXrecord
280
     1
102
RTVSPost2010Prop28
280
     0
102
RTVSPost2010PropOp28
 70
     1
102
RTVSPost2010Prop29
280
     1
102
RTVSPost2010PropOp29
 70
     1
102
RTVSPost2010Prop30
280
     1
102
RTVSPost2010PropOp30
 70
     1
102
RTVSPost2010Prop31
280
     0
102
RTVSPost2010PropOp31
 70
     1
102
RTVSPost2010Prop32
280
     0
102
RTVSPost2010PropOp32
 70
     1
102
RTVSPost2010Prop33
280
     0
102
RTVSPost2010PropOp33
 70
     1
102
RTVSPost2010Prop34
280
     0
102
RTVSPost2010PropOp34
 70
     1
102
RTVSPost2010Prop35
280
     0
102
RTVSPost2010PropOp35
 70
     1
102
RTVSPost2010Prop36
280
     0
102
RTVSPost2010PropOp36
 70
     1
102
RTVSPost2010Prop37
 90
       50
102
RTVSPost2010PropOp37
 70
     1
102
RTVSPost2010Prop38
140
0.0
102
RTVSPost2010PropOp38
 70
     1
102
RTVSPost2010Prop39
140
1.0
102
RTVSPost2010PropOp39
 70
     1
102
RTVSPost2010Prop40
 90
        0
102
RTVSPost2010PropOp40
 70
     1
102
RTVSPost2010Prop41ColorIndex
 90
       18
102
RTVSPost2010Prop41ColorRGB
 90
        0
102
RTVSPost2010PropOp41
 70
     1
102
RTVSPost2010Prop42
 90
       50
102
RTVSPost2010PropOp42
 70
     1
102
RTVSPost2010Prop43
 90
        3
102
RTVSPost2010PropOp43
 70
     1
102
RTVSPost2010Prop44ColorIndex
 90
        5
102
RTVSPost2010Prop44ColorRGB
 90
      255
102
RTVSPost2010PropOp44
 70
     1
102
RTVSPost2010Prop45
280
     0
102
RTVSPost2010PropOp45
 70
     1
102
RTVSPost2010Prop46
 90
       50
102
RTVSPost2010PropOp46
 70
     1
102
RTVSPost2010Prop47
 90
       50
102
RTVSPost2010PropOp47
 70
     1
102
RTVSPost2010Prop48
 90
       50
102
RTVSPost2010PropOp48
 70
     1
102
RTVSPost2010Prop49
280
     0
102
RTVSPost2010PropOp49
 70
     1
102
RTVSPost2010Prop50
 90
       50
102
RTVSPost2010PropOp50
 70
     1
102
RTVSPost2010Prop51ColorIndex
 90
      256
102
RTVSPost2010Prop51ColorRGB
 90
-16777216
102
RTVSPost2010PropOp51
 70
     0
102
RTVSPost2010Prop52
140
1.0
102
RTVSPost2010PropOp52
 70
     0
102
RTVSPost2010Prop53
 90
        2
102
RTVSPost2010PropOp53
 70
     1
102
RTVSPost2010Prop54
  1
strokes_ogs.tif
102
RTVSPost2010PropOp54
 70
     1
102
RTVSPost2010Prop55
280
     0
102
RTVSPost2010PropOp55
 70
     1
102
RTVSPost2010Prop56
140
1.0
102
RTVSPost2010PropOp56
 70
     1
102
RTVSPost2010Prop57
140
1.0
102
RTVSPost2010PropOp57
 70
     1
102
RTVSPropertyOp0
 70
     1
102
RTVSPropertyOp1
 70
     1
102
RTVSPropertyOp2
 70
     1
102
RTVSPropertyOp3
 70
     1
102
RTVSPropertyOp4
 70
     1
102
RTVSPropertyOp5
 70
     1
102
RTVSPropertyOp6
 70
     1
102
RTVSPropertyOp7
 70
     1
102
RTVSPropertyOp8
 70
     1
102
RTVSPropertyOp9
 70
     1
102
RTVSPropertyOp10
 70
     1
102
RTVSPropertyOp11
 70
     1
102
RTVSPropertyOp12
 70
     1
102
RTVSPropertyOp13
 70
     1
102
RTVSPropertyOp14
 70
     1
102
RTVSPropertyOp15
 70
     1
102
RTVSPropertyOp16
 70
     1
102
RTVSPropertyOp17
 70
     1
102
RTVSPropertyOp18
 70
     1
102
RTVSPropertyOp19
 70
     1
102
RTVSPropertyOp20
 70
     1
102
RTVSPropertyOp21
 70
     1
102
RTVSPropertyOp22
 70
     1
102
RTVSPropertyOp23
 70
     1
102
RTVSPropertyOp24
 70
     1
102
RTVSPropertyOp25
 70
     1
102
RTVSPropertyOp26
 70
     1
102
RTVSPropertyOp27
 70
     1
102
RTVSPropertyOp28
 70
     1
102
RTVSPropertyOp29
 70
     1
102
RTVSPropertyOp30
 70
     1
102
RTVSPropertyOp31
 70
     1
102
RTVSPropertyOp32
 70
     1
102
RTVSPropertyOp33
 70
     1
102
RTVSPropertyOp34
 70
     1
102
RTVSPropertyOp35
 70
     1
102
RTVSPropertyOp36
 70
     1
102
RTVSPropertyOp37
 70
     1
102
RTVSPropertyOp38
 70
     1
102
RTVSPropertyOp39
 70
     1
102
RTVSPropertyOp40
 70
     1
102
RTVSPropertyOp41
 70
     1
102
RTVSPropertyOp42
 70
     1
102
RTVSPropertyOp43
 70
     1
102
RTVSPropertyOp44
 70
     1
102
RTVSPropertyOp45
 70
     1
102
RTVSPropertyOp46
 70
     1
102
RTVSPropertyOp47
 70
     1
102
RTVSPropertyOp48
 70
     1
102
RTVSPropertyOp49
 70
     1
102
RTVSPropertyOp50
 70
     1
102
RTVSPropertyOp51
 70
     0
102
RTVSPropertyOp52
 70
     0
102
RTVSPropertyOp53
 70
     1
102
RTVSPropertyOp54
 70
     1
102
RTVSPropertyOp55
 70
     1
102
RTVSPropertyOp56
 70
     1
102
RTVSPropertyOp57
 70
     1
102
RTVSPropertyOp58
 70
     1
102
RTVSPropertyOp59
 70
     1
102
RTVSPropertyOp60
 70
     1
102
RTVSPropertyOp61
 70
     1
102
RTVSPropertyOp62
 70
     1
  0
XRECORD
  5
D4D
102
{ACAD_REACTORS
330
D4C
102
}
330
D4C
100
AcDbXrecord
280
     1
102
RTVSPost2010Prop28
280
     0
102
RTVSPost2010PropOp28
 70
     1
102
RTVSPost2010Prop29
280
     1
102
RTVSPost2010PropOp29
 70
     1
102
RTVSPost2010Prop30
280
     1
102
RTVSPost2010PropOp30
 70
     1
102
RTVSPost2010Prop31
280
     0
102
RTVSPost2010PropOp31
 70
     1
102
RTVSPost2010Prop32
280
     0
102
RTVSPost2010PropOp32
 70
     1
102
RTVSPost2010Prop33
280
     0
102
RTVSPost2010PropOp33
 70
     1
102
RTVSPost2010Prop34
280
     0
102
RTVSPost2010PropOp34
 70
     1
102
RTVSPost2010Prop35
280
     0
102
RTVSPost2010PropOp35
 70
     1
102
RTVSPost2010Prop36
280
     0
102
RTVSPost2010PropOp36
 70
     1
102
RTVSPost2010Prop37
 90
       50
102
RTVSPost2010PropOp37
 70
     1
102
RTVSPost2010Prop38
140
0.0
102
RTVSPost2010PropOp38
 70
     1
102
RTVSPost2010Prop39
140
1.0
102
RTVSPost2010PropOp39
 70
     1
102
RTVSPost2010Prop40
 90
        0
102
RTVSPost2010PropOp40
 70
     1
102
RTVSPost2010Prop41ColorIndex
 90
       18
102
RTVSPost2010Prop41ColorRGB
 90
        0
102
RTVSPost2010PropOp41
 70
     1
102
RTVSPost2010Prop42
 90
       50
102
RTVSPost2010PropOp42
 70
     1
102
RTVSPost2010Prop43
 90
        3
102
RTVSPost2010PropOp43
 70
     1
102
RTVSPost2010Prop44ColorIndex
 90
        5
102
RTVSPost2010Prop44ColorRGB
 90
      255
102
RTVSPost2010PropOp44
 70
     1
102
RTVSPost2010Prop45
280
     0
102
RTVSPost2010PropOp45
 70
     1
102
RTVSPost2010Prop46
 90
       50
102
RTVSPost2010PropOp46
 70
     1
102
RTVSPost2010Prop47
 90
       50
102
RTVSPost2010PropOp47
 70
     1
102
RTVSPost2010Prop48
 90
       50
102
RTVSPost2010PropOp48
 70
     1
102
RTVSPost2010Prop49
280
     0
102
RTVSPost2010PropOp49
 70
     1
102
RTVSPost2010Prop50
 90
       50
102
RTVSPost2010PropOp50
 70
     1
102
RTVSPost2010Prop51ColorIndex
 90
      256
102
RTVSPost2010Prop51ColorRGB
 90
-16777216
102
RTVSPost2010PropOp51
 70
     0
102
RTVSPost2010Prop52
140
1.0
102
RTVSPost2010PropOp52
 70
     0
102
RTVSPost2010Prop53
 90
        2
102
RTVSPost2010PropOp53
 70
     1
102
RTVSPost2010Prop54
  1
strokes_ogs.tif
102
RTVSPost2010PropOp54
 70
     1
102
RTVSPost2010Prop55
280
     0
102
RTVSPost2010PropOp55
 70
     1
102
RTVSPost2010Prop56
140
1.0
102
RTVSPost2010PropOp56
 70
     1
102
RTVSPost2010Prop57
140
1.0
102
RTVSPost2010PropOp57
 70
     1
102
RTVSPropertyOp0
 70
     1
102
RTVSPropertyOp1
 70
     1
102
RTVSPropertyOp2
 70
     1
102
RTVSPropertyOp3
 70
     1
102
RTVSPropertyOp4
 70
     1
102
RTVSPropertyOp5
 70
     1
102
RTVSPropertyOp6
 70
     1
102
RTVSPropertyOp7
 70
     1
102
RTVSPropertyOp8
 70
     1
102
RTVSPropertyOp9
 70
     1
102
RTVSPropertyOp10
 70
     1
102
RTVSPropertyOp11
 70
     1
102
RTVSPropertyOp12
 70
     1
102
RTVSPropertyOp13
 70
     1
102
RTVSPropertyOp14
 70
     1
102
RTVSPropertyOp15
 70
     1
102
RTVSPropertyOp16
 70
     1
102
RTVSPropertyOp17
 70
     1
102
RTVSPropertyOp18
 70
     1
102
RTVSPropertyOp19
 70
     1
102
RTVSPropertyOp20
 70
     1
102
RTVSPropertyOp21
 70
     1
102
RTVSPropertyOp22
 70
     1
102
RTVSPropertyOp23
 70
     1
102
RTVSPropertyOp24
 70
     1
102
RTVSPropertyOp25
 70
     1
102
RTVSPropertyOp26
 70
     1
102
RTVSPropertyOp27
 70
     1
102
RTVSPropertyOp28
 70
     1
102
RTVSPropertyOp29
 70
     1
102
RTVSPropertyOp30
 70
     1
102
RTVSPropertyOp31
 70
     1
102
RTVSPropertyOp32
 70
     1
102
RTVSPropertyOp33
 70
     1
102
RTVSPropertyOp34
 70
     1
102
RTVSPropertyOp35
 70
     1
102
RTVSPropertyOp36
 70
     1
102
RTVSPropertyOp37
 70
     1
102
RTVSPropertyOp38
 70
     1
102
RTVSPropertyOp39
 70
     1
102
RTVSPropertyOp40
 70
     1
102
RTVSPropertyOp41
 70
     1
102
RTVSPropertyOp42
 70
     1
102
RTVSPropertyOp43
 70
     1
102
RTVSPropertyOp44
 70
     1
102
RTVSPropertyOp45
 70
     1
102
RTVSPropertyOp46
 70
     1
102
RTVSPropertyOp47
 70
     1
102
RTVSPropertyOp48
 70
     1
102
RTVSPropertyOp49
 70
     1
102
RTVSPropertyOp50
 70
     1
102
RTVSPropertyOp51
 70
     0
102
RTVSPropertyOp52
 70
     0
102
RTVSPropertyOp53
 70
     1
102
RTVSPropertyOp54
 70
     1
102
RTVSPropertyOp55
 70
     1
102
RTVSPropertyOp56
 70
     1
102
RTVSPropertyOp57
 70
     1
102
RTVSPropertyOp58
 70
     1
102
RTVSPropertyOp59
 70
     1
102
RTVSPropertyOp60
 70
     1
102
RTVSPropertyOp61
 70
     1
102
RTVSPropertyOp62
 70
     1
  0
XRECORD
  5
D51
102
{ACAD_REACTORS
330
D50
102
}
330
D50
100
AcDbXrecord
280
     1
102
RTVSPost2010Prop28
280
     0
102
RTVSPost2010PropOp28
 70
     1
102
RTVSPost2010Prop29
280
     1
102
RTVSPost2010PropOp29
 70
     1
102
RTVSPost2010Prop30
280
     1
102
RTVSPost2010PropOp30
 70
     1
102
RTVSPost2010Prop31
280
     0
102
RTVSPost2010PropOp31
 70
     1
102
RTVSPost2010Prop32
280
     0
102
RTVSPost2010PropOp32
 70
     1
102
RTVSPost2010Prop33
280
     0
102
RTVSPost2010PropOp33
 70
     1
102
RTVSPost2010Prop34
280
     0
102
RTVSPost2010PropOp34
 70
     1
102
RTVSPost2010Prop35
280
     0
102
RTVSPost2010PropOp35
 70
     1
102
RTVSPost2010Prop36
280
     0
102
RTVSPost2010PropOp36
 70
     1
102
RTVSPost2010Prop37
 90
       50
102
RTVSPost2010PropOp37
 70
     1
102
RTVSPost2010Prop38
140
0.0
102
RTVSPost2010PropOp38
 70
     1
102
RTVSPost2010Prop39
140
1.0
102
RTVSPost2010PropOp39
 70
     1
102
RTVSPost2010Prop40
 90
        0
102
RTVSPost2010PropOp40
 70
     1
102
RTVSPost2010Prop41ColorIndex
 90
       18
102
RTVSPost2010Prop41ColorRGB
 90
        0
102
RTVSPost2010PropOp41
 70
     1
102
RTVSPost2010Prop42
 90
       50
102
RTVSPost2010PropOp42
 70
     1
102
RTVSPost2010Prop43
 90
        3
102
RTVSPost2010PropOp43
 70
     1
102
RTVSPost2010Prop44ColorIndex
 90
        5
102
RTVSPost2010Prop44ColorRGB
 90
      255
102
RTVSPost2010PropOp44
 70
     1
102
RTVSPost2010Prop45
280
     0
102
RTVSPost2010PropOp45
 70
     1
102
RTVSPost2010Prop46
 90
       50
102
RTVSPost2010PropOp46
 70
     1
102
RTVSPost2010Prop47
 90
       50
102
RTVSPost2010PropOp47
 70
     1
102
RTVSPost2010Prop48
 90
       50
102
RTVSPost2010PropOp48
 70
     1
102
RTVSPost2010Prop49
280
     0
102
RTVSPost2010PropOp49
 70
     1
102
RTVSPost2010Prop50
 90
       50
102
RTVSPost2010PropOp50
 70
     1
102
RTVSPost2010Prop51ColorIndex
 90
      256
102
RTVSPost2010Prop51ColorRGB
 90
-16777216
102
RTVSPost2010PropOp51
 70
     0
102
RTVSPost2010Prop52
140
1.0
102
RTVSPost2010PropOp52
 70
     0
102
RTVSPost2010Prop53
 90
        2
102
RTVSPost2010PropOp53
 70
     1
102
RTVSPost2010Prop54
  1
strokes_ogs.tif
102
RTVSPost2010PropOp54
 70
     1
102
RTVSPost2010Prop55
280
     0
102
RTVSPost2010PropOp55
 70
     1
102
RTVSPost2010Prop56
140
1.0
102
RTVSPost2010PropOp56
 70
     1
102
RTVSPost2010Prop57
140
1.0
102
RTVSPost2010PropOp57
 70
     1
102
RTVSPropertyOp0
 70
     1
102
RTVSPropertyOp1
 70
     1
102
RTVSPropertyOp2
 70
     1
102
RTVSPropertyOp3
 70
     1
102
RTVSPropertyOp4
 70
     1
102
RTVSPropertyOp5
 70
     1
102
RTVSPropertyOp6
 70
     1
102
RTVSPropertyOp7
 70
     1
102
RTVSPropertyOp8
 70
     1
102
RTVSPropertyOp9
 70
     1
102
RTVSPropertyOp10
 70
     1
102
RTVSPropertyOp11
 70
     1
102
RTVSPropertyOp12
 70
     1
102
RTVSPropertyOp13
 70
     1
102
RTVSPropertyOp14
 70
     1
102
RTVSPropertyOp15
 70
     1
102
RTVSPropertyOp16
 70
     1
102
RTVSPropertyOp17
 70
     1
102
RTVSPropertyOp18
 70
     1
102
RTVSPropertyOp19
 70
     1
102
RTVSPropertyOp20
 70
     1
102
RTVSPropertyOp21
 70
     1
102
RTVSPropertyOp22
 70
     1
102
RTVSPropertyOp23
 70
     1
102
RTVSPropertyOp24
 70
     1
102
RTVSPropertyOp25
 70
     1
102
RTVSPropertyOp26
 70
     1
102
RTVSPropertyOp27
 70
     1
102
RTVSPropertyOp28
 70
     1
102
RTVSPropertyOp29
 70
     1
102
RTVSPropertyOp30
 70
     1
102
RTVSPropertyOp31
 70
     1
102
RTVSPropertyOp32
 70
     1
102
RTVSPropertyOp33
 70
     1
102
RTVSPropertyOp34
 70
     1
102
RTVSPropertyOp35
 70
     1
102
RTVSPropertyOp36
 70
     1
102
RTVSPropertyOp37
 70
     1
102
RTVSPropertyOp38
 70
     1
102
RTVSPropertyOp39
 70
     1
102
RTVSPropertyOp40
 70
     1
102
RTVSPropertyOp41
 70
     1
102
RTVSPropertyOp42
 70
     1
102
RTVSPropertyOp43
 70
     1
102
RTVSPropertyOp44
 70
     1
102
RTVSPropertyOp45
 70
     1
102
RTVSPropertyOp46
 70
     1
102
RTVSPropertyOp47
 70
     1
102
RTVSPropertyOp48
 70
     1
102
RTVSPropertyOp49
 70
     1
102
RTVSPropertyOp50
 70
     1
102
RTVSPropertyOp51
 70
     0
102
RTVSPropertyOp52
 70
     0
102
RTVSPropertyOp53
 70
     1
102
RTVSPropertyOp54
 70
     1
102
RTVSPropertyOp55
 70
     1
102
RTVSPropertyOp56
 70
     1
102
RTVSPropertyOp57
 70
     1
102
RTVSPropertyOp58
 70
     1
102
RTVSPropertyOp59
 70
     1
102
RTVSPropertyOp60
 70
     1
102
RTVSPropertyOp61
 70
     1
102
RTVSPropertyOp62
 70
     1
  0
XRECORD
  5
D63
102
{ACAD_REACTORS
330
D62
102
}
330
D62
100
AcDbXrecord
280
     1
102
RTVSPost2010Prop28
280
     0
102
RTVSPost2010PropOp28
 70
     1
102
RTVSPost2010Prop29
280
     1
102
RTVSPost2010PropOp29
 70
     1
102
RTVSPost2010Prop30
280
     1
102
RTVSPost2010PropOp30
 70
     1
102
RTVSPost2010Prop31
280
     0
102
RTVSPost2010PropOp31
 70
     1
102
RTVSPost2010Prop32
280
     0
102
RTVSPost2010PropOp32
 70
     1
102
RTVSPost2010Prop33
280
     0
102
RTVSPost2010PropOp33
 70
     1
102
RTVSPost2010Prop34
280
     0
102
RTVSPost2010PropOp34
 70
     1
102
RTVSPost2010Prop35
280
     0
102
RTVSPost2010PropOp35
 70
     1
102
RTVSPost2010Prop36
280
     0
102
RTVSPost2010PropOp36
 70
     1
102
RTVSPost2010Prop37
 90
       50
102
RTVSPost2010PropOp37
 70
     1
102
RTVSPost2010Prop38
140
0.0
102
RTVSPost2010PropOp38
 70
     1
102
RTVSPost2010Prop39
140
1.0
102
RTVSPost2010PropOp39
 70
     1
102
RTVSPost2010Prop40
 90
        0
102
RTVSPost2010PropOp40
 70
     1
102
RTVSPost2010Prop41ColorIndex
 90
       18
102
RTVSPost2010Prop41ColorRGB
 90
        0
102
RTVSPost2010PropOp41
 70
     1
102
RTVSPost2010Prop42
 90
       50
102
RTVSPost2010PropOp42
 70
     1
102
RTVSPost2010Prop43
 90
        3
102
RTVSPost2010PropOp43
 70
     1
102
RTVSPost2010Prop44ColorIndex
 90
        5
102
RTVSPost2010Prop44ColorRGB
 90
      255
102
RTVSPost2010PropOp44
 70
     1
102
RTVSPost2010Prop45
280
     0
102
RTVSPost2010PropOp45
 70
     1
102
RTVSPost2010Prop46
 90
       50
102
RTVSPost2010PropOp46
 70
     1
102
RTVSPost2010Prop47
 90
       50
102
RTVSPost2010PropOp47
 70
     1
102
RTVSPost2010Prop48
 90
       50
102
RTVSPost2010PropOp48
 70
     1
102
RTVSPost2010Prop49
280
     0
102
RTVSPost2010PropOp49
 70
     1
102
RTVSPost2010Prop50
 90
       50
102
RTVSPost2010PropOp50
 70
     1
102
RTVSPost2010Prop51ColorIndex
 90
      256
102
RTVSPost2010Prop51ColorRGB
 90
-16777216
102
RTVSPost2010PropOp51
 70
     0
102
RTVSPost2010Prop52
140
1.0
102
RTVSPost2010PropOp52
 70
     0
102
RTVSPost2010Prop53
 90
        2
102
RTVSPost2010PropOp53
 70
     1
102
RTVSPost2010Prop54
  1
strokes_ogs.tif
102
RTVSPost2010PropOp54
 70
     1
102
RTVSPost2010Prop55
280
     0
102
RTVSPost2010PropOp55
 70
     1
102
RTVSPost2010Prop56
140
1.0
102
RTVSPost2010PropOp56
 70
     1
102
RTVSPost2010Prop57
140
1.0
102
RTVSPost2010PropOp57
 70
     1
102
RTVSPropertyOp0
 70
     0
102
RTVSPropertyOp1
 70
     0
102
RTVSPropertyOp2
 70
     0
102
RTVSPropertyOp3
 70
     0
102
RTVSPropertyOp4
 70
     0
102
RTVSPropertyOp5
 70
     0
102
RTVSPropertyOp6
 70
     0
102
RTVSPropertyOp7
 70
     0
102
RTVSPropertyOp8
 70
     0
102
RTVSPropertyOp9
 70
     0
102
RTVSPropertyOp10
 70
     0
102
RTVSPropertyOp11
 70
     0
102
RTVSPropertyOp12
 70
     0
102
RTVSPropertyOp13
 70
     0
102
RTVSPropertyOp14
 70
     2
102
RTVSPropertyOp15
 70
     0
102
RTVSPropertyOp16
 70
     0
102
RTVSPropertyOp17
 70
     0
102
RTVSPropertyOp18
 70
     0
102
RTVSPropertyOp19
 70
     0
102
RTVSPropertyOp20
 70
     0
102
RTVSPropertyOp21
 70
     0
102
RTVSPropertyOp22
 70
     0
102
RTVSPropertyOp23
 70
     0
102
RTVSPropertyOp24
 70
     0
102
RTVSPropertyOp25
 70
     0
102
RTVSPropertyOp26
 70
     0
102
RTVSPropertyOp27
 70
     0
102
RTVSPropertyOp28
 70
     1
102
RTVSPropertyOp29
 70
     1
102
RTVSPropertyOp30
 70
     1
102
RTVSPropertyOp31
 70
     1
102
RTVSPropertyOp32
 70
     1
102
RTVSPropertyOp33
 70
     1
102
RTVSPropertyOp34
 70
     1
102
RTVSPropertyOp35
 70
     1
102
RTVSPropertyOp36
 70
     1
102
RTVSPropertyOp37
 70
     1
102
RTVSPropertyOp38
 70
     1
102
RTVSPropertyOp39
 70
     1
102
RTVSPropertyOp40
 70
     1
102
RTVSPropertyOp41
 70
     1
102
RTVSPropertyOp42
 70
     1
102
RTVSPropertyOp43
 70
     1
102
RTVSPropertyOp44
 70
     1
102
RTVSPropertyOp45
 70
     1
102
RTVSPropertyOp46
 70
     1
102
RTVSPropertyOp47
 70
     1
102
RTVSPropertyOp48
 70
     1
102
RTVSPropertyOp49
 70
     1
102
RTVSPropertyOp50
 70
     1
102
RTVSPropertyOp51
 70
     0
102
RTVSPropertyOp52
 70
     0
102
RTVSPropertyOp53
 70
     1
102
RTVSPropertyOp54
 70
     1
102
RTVSPropertyOp55
 70
     1
102
RTVSPropertyOp56
 70
     1
102
RTVSPropertyOp57
 70
     1
102
RTVSPropertyOp58
 70
     1
102
RTVSPropertyOp59
 70
     1
102
RTVSPropertyOp60
 70
     1
102
RTVSPropertyOp61
 70
     1
102
RTVSPropertyOp62
 70
     1
  0
XRECORD
  5
D59
102
{ACAD_REACTORS
330
D58
102
}
330
D58
100
AcDbXrecord
280
     1
102
RTVSPost2010Prop28
280
     0
102
RTVSPost2010PropOp28
 70
     1
102
RTVSPost2010Prop29
280
     1
102
RTVSPost2010PropOp29
 70
     1
102
RTVSPost2010Prop30
280
     1
102
RTVSPost2010PropOp30
 70
     1
102
RTVSPost2010Prop31
280
     0
102
RTVSPost2010PropOp31
 70
     1
102
RTVSPost2010Prop32
280
     0
102
RTVSPost2010PropOp32
 70
     1
102
RTVSPost2010Prop33
280
     0
102
RTVSPost2010PropOp33
 70
     1
102
RTVSPost2010Prop34
280
     0
102
RTVSPost2010PropOp34
 70
     1
102
RTVSPost2010Prop35
280
     0
102
RTVSPost2010PropOp35
 70
     1
102
RTVSPost2010Prop36
280
     0
102
RTVSPost2010PropOp36
 70
     1
102
RTVSPost2010Prop37
 90
       50
102
RTVSPost2010PropOp37
 70
     1
102
RTVSPost2010Prop38
140
0.0
102
RTVSPost2010PropOp38
 70
     1
102
RTVSPost2010Prop39
140
1.0
102
RTVSPost2010PropOp39
 70
     1
102
RTVSPost2010Prop40
 90
        0
102
RTVSPost2010PropOp40
 70
     1
102
RTVSPost2010Prop41ColorIndex
 90
       18
102
RTVSPost2010Prop41ColorRGB
 90
        0
102
RTVSPost2010PropOp41
 70
     1
102
RTVSPost2010Prop42
 90
       50
102
RTVSPost2010PropOp42
 70
     1
102
RTVSPost2010Prop43
 90
        3
102
RTVSPost2010PropOp43
 70
     1
102
RTVSPost2010Prop44ColorIndex
 90
        5
102
RTVSPost2010Prop44ColorRGB
 90
      255
102
RTVSPost2010PropOp44
 70
     1
102
RTVSPost2010Prop45
280
     0
102
RTVSPost2010PropOp45
 70
     1
102
RTVSPost2010Prop46
 90
       50
102
RTVSPost2010PropOp46
 70
     1
102
RTVSPost2010Prop47
 90
       50
102
RTVSPost2010PropOp47
 70
     1
102
RTVSPost2010Prop48
 90
       50
102
RTVSPost2010PropOp48
 70
     1
102
RTVSPost2010Prop49
280
     0
102
RTVSPost2010PropOp49
 70
     1
102
RTVSPost2010Prop50
 90
       50
102
RTVSPost2010PropOp50
 70
     1
102
RTVSPost2010Prop51ColorIndex
 90
      256
102
RTVSPost2010Prop51ColorRGB
 90
-16777216
102
RTVSPost2010PropOp51
 70
     0
102
RTVSPost2010Prop52
140
1.0
102
RTVSPost2010PropOp52
 70
     0
102
RTVSPost2010Prop53
 90
        2
102
RTVSPost2010PropOp53
 70
     1
102
RTVSPost2010Prop54
  1
strokes_ogs.tif
102
RTVSPost2010PropOp54
 70
     1
102
RTVSPost2010Prop55
280
     0
102
RTVSPost2010PropOp55
 70
     1
102
RTVSPost2010Prop56
140
1.0
102
RTVSPost2010PropOp56
 70
     1
102
RTVSPost2010Prop57
140
1.0
102
RTVSPost2010PropOp57
 70
     1
102
RTVSPropertyOp0
 70
     1
102
RTVSPropertyOp1
 70
     1
102
RTVSPropertyOp2
 70
     1
102
RTVSPropertyOp3
 70
     1
102
RTVSPropertyOp4
 70
     1
102
RTVSPropertyOp5
 70
     1
102
RTVSPropertyOp6
 70
     1
102
RTVSPropertyOp7
 70
     1
102
RTVSPropertyOp8
 70
     1
102
RTVSPropertyOp9
 70
     1
102
RTVSPropertyOp10
 70
     1
102
RTVSPropertyOp11
 70
     1
102
RTVSPropertyOp12
 70
     1
102
RTVSPropertyOp13
 70
     1
102
RTVSPropertyOp14
 70
     1
102
RTVSPropertyOp15
 70
     1
102
RTVSPropertyOp16
 70
     1
102
RTVSPropertyOp17
 70
     1
102
RTVSPropertyOp18
 70
     1
102
RTVSPropertyOp19
 70
     1
102
RTVSPropertyOp20
 70
     1
102
RTVSPropertyOp21
 70
     1
102
RTVSPropertyOp22
 70
     1
102
RTVSPropertyOp23
 70
     1
102
RTVSPropertyOp24
 70
     1
102
RTVSPropertyOp25
 70
     1
102
RTVSPropertyOp26
 70
     1
102
RTVSPropertyOp27
 70
     1
102
RTVSPropertyOp28
 70
     1
102
RTVSPropertyOp29
 70
     1
102
RTVSPropertyOp30
 70
     1
102
RTVSPropertyOp31
 70
     1
102
RTVSPropertyOp32
 70
     1
102
RTVSPropertyOp33
 70
     1
102
RTVSPropertyOp34
 70
     1
102
RTVSPropertyOp35
 70
     1
102
RTVSPropertyOp36
 70
     1
102
RTVSPropertyOp37
 70
     1
102
RTVSPropertyOp38
 70
     1
102
RTVSPropertyOp39
 70
     1
102
RTVSPropertyOp40
 70
     1
102
RTVSPropertyOp41
 70
     1
102
RTVSPropertyOp42
 70
     1
102
RTVSPropertyOp43
 70
     1
102
RTVSPropertyOp44
 70
     1
102
RTVSPropertyOp45
 70
     1
102
RTVSPropertyOp46
 70
     1
102
RTVSPropertyOp47
 70
     1
102
RTVSPropertyOp48
 70
     1
102
RTVSPropertyOp49
 70
     1
102
RTVSPropertyOp50
 70
     1
102
RTVSPropertyOp51
 70
     0
102
RTVSPropertyOp52
 70
     0
102
RTVSPropertyOp53
 70
     1
102
RTVSPropertyOp54
 70
     1
102
RTVSPropertyOp55
 70
     1
102
RTVSPropertyOp56
 70
     1
102
RTVSPropertyOp57
 70
     1
102
RTVSPropertyOp58
 70
     1
102
RTVSPropertyOp59
 70
     1
102
RTVSPropertyOp60
 70
     1
102
RTVSPropertyOp61
 70
     1
102
RTVSPropertyOp62
 70
     1
  0
XRECORD
  5
D3D
102
{ACAD_REACTORS
330
D3C
102
}
330
D3C
100
AcDbXrecord
280
     1
102
RTVSPost2010Prop28
280
     0
102
RTVSPost2010PropOp28
 70
     1
102
RTVSPost2010Prop29
280
     1
102
RTVSPost2010PropOp29
 70
     1
102
RTVSPost2010Prop30
280
     1
102
RTVSPost2010PropOp30
 70
     1
102
RTVSPost2010Prop31
280
     0
102
RTVSPost2010PropOp31
 70
     1
102
RTVSPost2010Prop32
280
     0
102
RTVSPost2010PropOp32
 70
     1
102
RTVSPost2010Prop33
280
     0
102
RTVSPost2010PropOp33
 70
     1
102
RTVSPost2010Prop34
280
     0
102
RTVSPost2010PropOp34
 70
     1
102
RTVSPost2010Prop35
280
     0
102
RTVSPost2010PropOp35
 70
     1
102
RTVSPost2010Prop36
280
     0
102
RTVSPost2010PropOp36
 70
     1
102
RTVSPost2010Prop37
 90
       50
102
RTVSPost2010PropOp37
 70
     1
102
RTVSPost2010Prop38
140
0.0
102
RTVSPost2010PropOp38
 70
     1
102
RTVSPost2010Prop39
140
1.0
102
RTVSPost2010PropOp39
 70
     1
102
RTVSPost2010Prop40
 90
        0
102
RTVSPost2010PropOp40
 70
     1
102
RTVSPost2010Prop41ColorIndex
 90
       18
102
RTVSPost2010Prop41ColorRGB
 90
        0
102
RTVSPost2010PropOp41
 70
     1
102
RTVSPost2010Prop42
 90
       50
102
RTVSPost2010PropOp42
 70
     1
102
RTVSPost2010Prop43
 90
        3
102
RTVSPost2010PropOp43
 70
     1
102
RTVSPost2010Prop44ColorIndex
 90
        5
102
RTVSPost2010Prop44ColorRGB
 90
      255
102
RTVSPost2010PropOp44
 70
     1
102
RTVSPost2010Prop45
280
     0
102
RTVSPost2010PropOp45
 70
     1
102
RTVSPost2010Prop46
 90
       50
102
RTVSPost2010PropOp46
 70
     1
102
RTVSPost2010Prop47
 90
       50
102
RTVSPost2010PropOp47
 70
     1
102
RTVSPost2010Prop48
 90
       50
102
RTVSPost2010PropOp48
 70
     1
102
RTVSPost2010Prop49
280
     0
102
RTVSPost2010PropOp49
 70
     1
102
RTVSPost2010Prop50
 90
       50
102
RTVSPost2010PropOp50
 70
     1
102
RTVSPost2010Prop51ColorIndex
 90
      256
102
RTVSPost2010Prop51ColorRGB
 90
-16777216
102
RTVSPost2010PropOp51
 70
     0
102
RTVSPost2010Prop52
140
1.0
102
RTVSPost2010PropOp52
 70
     0
102
RTVSPost2010Prop53
 90
        2
102
RTVSPost2010PropOp53
 70
     1
102
RTVSPost2010Prop54
  1
strokes_ogs.tif
102
RTVSPost2010PropOp54
 70
     1
102
RTVSPost2010Prop55
280
     0
102
RTVSPost2010PropOp55
 70
     1
102
RTVSPost2010Prop56
140
1.0
102
RTVSPost2010PropOp56
 70
     1
102
RTVSPost2010Prop57
140
1.0
102
RTVSPost2010PropOp57
 70
     1
102
RTVSPropertyOp0
 70
     1
102
RTVSPropertyOp1
 70
     1
102
RTVSPropertyOp2
 70
     1
102
RTVSPropertyOp3
 70
     1
102
RTVSPropertyOp4
 70
     1
102
RTVSPropertyOp5
 70
     1
102
RTVSPropertyOp6
 70
     1
102
RTVSPropertyOp7
 70
     1
102
RTVSPropertyOp8
 70
     1
102
RTVSPropertyOp9
 70
     1
102
RTVSPropertyOp10
 70
     1
102
RTVSPropertyOp11
 70
     1
102
RTVSPropertyOp12
 70
     1
102
RTVSPropertyOp13
 70
     1
102
RTVSPropertyOp14
 70
     1
102
RTVSPropertyOp15
 70
     1
102
RTVSPropertyOp16
 70
     1
102
RTVSPropertyOp17
 70
     1
102
RTVSPropertyOp18
 70
     1
102
RTVSPropertyOp19
 70
     1
102
RTVSPropertyOp20
 70
     1
102
RTVSPropertyOp21
 70
     1
102
RTVSPropertyOp22
 70
     1
102
RTVSPropertyOp23
 70
     1
102
RTVSPropertyOp24
 70
     1
102
RTVSPropertyOp25
 70
     1
102
RTVSPropertyOp26
 70
     1
102
RTVSPropertyOp27
 70
     1
102
RTVSPropertyOp28
 70
     1
102
RTVSPropertyOp29
 70
     1
102
RTVSPropertyOp30
 70
     1
102
RTVSPropertyOp31
 70
     1
102
RTVSPropertyOp32
 70
     1
102
RTVSPropertyOp33
 70
     1
102
RTVSPropertyOp34
 70
     1
102
RTVSPropertyOp35
 70
     1
102
RTVSPropertyOp36
 70
     1
102
RTVSPropertyOp37
 70
     1
102
RTVSPropertyOp38
 70
     1
102
RTVSPropertyOp39
 70
     1
102
RTVSPropertyOp40
 70
     1
102
RTVSPropertyOp41
 70
     1
102
RTVSPropertyOp42
 70
     1
102
RTVSPropertyOp43
 70
     1
102
RTVSPropertyOp44
 70
     1
102
RTVSPropertyOp45
 70
     1
102
RTVSPropertyOp46
 70
     1
102
RTVSPropertyOp47
 70
     1
102
RTVSPropertyOp48
 70
     1
102
RTVSPropertyOp49
 70
     1
102
RTVSPropertyOp50
 70
     1
102
RTVSPropertyOp51
 70
     0
102
RTVSPropertyOp52
 70
     0
102
RTVSPropertyOp53
 70
     1
102
RTVSPropertyOp54
 70
     1
102
RTVSPropertyOp55
 70
     1
102
RTVSPropertyOp56
 70
     1
102
RTVSPropertyOp57
 70
     1
102
RTVSPropertyOp58
 70
     1
102
RTVSPropertyOp59
 70
     1
102
RTVSPropertyOp60
 70
     1
102
RTVSPropertyOp61
 70
     1
102
RTVSPropertyOp62
 70
     1
  0
XRECORD
  5
D3F
102
{ACAD_REACTORS
330
D3E
102
}
330
D3E
100
AcDbXrecord
280
     1
102
RTVSPost2010Prop28
280
     0
102
RTVSPost2010PropOp28
 70
     1
102
RTVSPost2010Prop29
280
     1
102
RTVSPost2010PropOp29
 70
     1
102
RTVSPost2010Prop30
280
     1
102
RTVSPost2010PropOp30
 70
     1
102
RTVSPost2010Prop31
280
     0
102
RTVSPost2010PropOp31
 70
     1
102
RTVSPost2010Prop32
280
     0
102
RTVSPost2010PropOp32
 70
     1
102
RTVSPost2010Prop33
280
     0
102
RTVSPost2010PropOp33
 70
     1
102
RTVSPost2010Prop34
280
     0
102
RTVSPost2010PropOp34
 70
     1
102
RTVSPost2010Prop35
280
     0
102
RTVSPost2010PropOp35
 70
     1
102
RTVSPost2010Prop36
280
     0
102
RTVSPost2010PropOp36
 70
     1
102
RTVSPost2010Prop37
 90
       50
102
RTVSPost2010PropOp37
 70
     1
102
RTVSPost2010Prop38
140
0.0
102
RTVSPost2010PropOp38
 70
     1
102
RTVSPost2010Prop39
140
1.0
102
RTVSPost2010PropOp39
 70
     1
102
RTVSPost2010Prop40
 90
        0
102
RTVSPost2010PropOp40
 70
     1
102
RTVSPost2010Prop41ColorIndex
 90
       18
102
RTVSPost2010Prop41ColorRGB
 90
        0
102
RTVSPost2010PropOp41
 70
     1
102
RTVSPost2010Prop42
 90
       50
102
RTVSPost2010PropOp42
 70
     1
102
RTVSPost2010Prop43
 90
        3
102
RTVSPost2010PropOp43
 70
     1
102
RTVSPost2010Prop44ColorIndex
 90
        5
102
RTVSPost2010Prop44ColorRGB
 90
      255
102
RTVSPost2010PropOp44
 70
     1
102
RTVSPost2010Prop45
280
     0
102
RTVSPost2010PropOp45
 70
     1
102
RTVSPost2010Prop46
 90
       50
102
RTVSPost2010PropOp46
 70
     1
102
RTVSPost2010Prop47
 90
       50
102
RTVSPost2010PropOp47
 70
     1
102
RTVSPost2010Prop48
 90
       50
102
RTVSPost2010PropOp48
 70
     1
102
RTVSPost2010Prop49
280
     0
102
RTVSPost2010PropOp49
 70
     1
102
RTVSPost2010Prop50
 90
       50
102
RTVSPost2010PropOp50
 70
     1
102
RTVSPost2010Prop51ColorIndex
 90
      256
102
RTVSPost2010Prop51ColorRGB
 90
-16777216
102
RTVSPost2010PropOp51
 70
     0
102
RTVSPost2010Prop52
140
1.0
102
RTVSPost2010PropOp52
 70
     0
102
RTVSPost2010Prop53
 90
        2
102
RTVSPost2010PropOp53
 70
     1
102
RTVSPost2010Prop54
  1
strokes_ogs.tif
102
RTVSPost2010PropOp54
 70
     1
102
RTVSPost2010Prop55
280
     0
102
RTVSPost2010PropOp55
 70
     1
102
RTVSPost2010Prop56
140
1.0
102
RTVSPost2010PropOp56
 70
     1
102
RTVSPost2010Prop57
140
1.0
102
RTVSPost2010PropOp57
 70
     1
102
RTVSPropertyOp0
 70
     1
102
RTVSPropertyOp1
 70
     1
102
RTVSPropertyOp2
 70
     1
102
RTVSPropertyOp3
 70
     1
102
RTVSPropertyOp4
 70
     1
102
RTVSPropertyOp5
 70
     1
102
RTVSPropertyOp6
 70
     1
102
RTVSPropertyOp7
 70
     1
102
RTVSPropertyOp8
 70
     1
102
RTVSPropertyOp9
 70
     1
102
RTVSPropertyOp10
 70
     1
102
RTVSPropertyOp11
 70
     1
102
RTVSPropertyOp12
 70
     1
102
RTVSPropertyOp13
 70
     1
102
RTVSPropertyOp14
 70
     1
102
RTVSPropertyOp15
 70
     1
102
RTVSPropertyOp16
 70
     1
102
RTVSPropertyOp17
 70
     1
102
RTVSPropertyOp18
 70
     1
102
RTVSPropertyOp19
 70
     1
102
RTVSPropertyOp20
 70
     1
102
RTVSPropertyOp21
 70
     1
102
RTVSPropertyOp22
 70
     1
102
RTVSPropertyOp23
 70
     1
102
RTVSPropertyOp24
 70
     1
102
RTVSPropertyOp25
 70
     1
102
RTVSPropertyOp26
 70
     1
102
RTVSPropertyOp27
 70
     1
102
RTVSPropertyOp28
 70
     1
102
RTVSPropertyOp29
 70
     1
102
RTVSPropertyOp30
 70
     1
102
RTVSPropertyOp31
 70
     1
102
RTVSPropertyOp32
 70
     1
102
RTVSPropertyOp33
 70
     1
102
RTVSPropertyOp34
 70
     1
102
RTVSPropertyOp35
 70
     1
102
RTVSPropertyOp36
 70
     1
102
RTVSPropertyOp37
 70
     1
102
RTVSPropertyOp38
 70
     1
102
RTVSPropertyOp39
 70
     1
102
RTVSPropertyOp40
 70
     1
102
RTVSPropertyOp41
 70
     1
102
RTVSPropertyOp42
 70
     1
102
RTVSPropertyOp43
 70
     1
102
RTVSPropertyOp44
 70
     1
102
RTVSPropertyOp45
 70
     1
102
RTVSPropertyOp46
 70
     1
102
RTVSPropertyOp47
 70
     1
102
RTVSPropertyOp48
 70
     1
102
RTVSPropertyOp49
 70
     1
102
RTVSPropertyOp50
 70
     1
102
RTVSPropertyOp51
 70
     0
102
RTVSPropertyOp52
 70
     0
102
RTVSPropertyOp53
 70
     1
102
RTVSPropertyOp54
 70
     1
102
RTVSPropertyOp55
 70
     1
102
RTVSPropertyOp56
 70
     1
102
RTVSPropertyOp57
 70
     1
102
RTVSPropertyOp58
 70
     1
102
RTVSPropertyOp59
 70
     1
102
RTVSPropertyOp60
 70
     1
102
RTVSPropertyOp61
 70
     1
102
RTVSPropertyOp62
 70
     1
  0
XRECORD
  5
D41
102
{ACAD_REACTORS
330
D40
102
}
330
D40
100
AcDbXrecord
280
     1
102
RTVSPost2010Prop28
280
     0
102
RTVSPost2010PropOp28
 70
     1
102
RTVSPost2010Prop29
280
     1
102
RTVSPost2010PropOp29
 70
     1
102
RTVSPost2010Prop30
280
     1
102
RTVSPost2010PropOp30
 70
     1
102
RTVSPost2010Prop31
280
     0
102
RTVSPost2010PropOp31
 70
     1
102
RTVSPost2010Prop32
280
     0
102
RTVSPost2010PropOp32
 70
     1
102
RTVSPost2010Prop33
280
     0
102
RTVSPost2010PropOp33
 70
     1
102
RTVSPost2010Prop34
280
     0
102
RTVSPost2010PropOp34
 70
     1
102
RTVSPost2010Prop35
280
     0
102
RTVSPost2010PropOp35
 70
     1
102
RTVSPost2010Prop36
280
     0
102
RTVSPost2010PropOp36
 70
     1
102
RTVSPost2010Prop37
 90
       50
102
RTVSPost2010PropOp37
 70
     1
102
RTVSPost2010Prop38
140
0.0
102
RTVSPost2010PropOp38
 70
     1
102
RTVSPost2010Prop39
140
1.0
102
RTVSPost2010PropOp39
 70
     1
102
RTVSPost2010Prop40
 90
        0
102
RTVSPost2010PropOp40
 70
     1
102
RTVSPost2010Prop41ColorIndex
 90
       18
102
RTVSPost2010Prop41ColorRGB
 90
        0
102
RTVSPost2010PropOp41
 70
     1
102
RTVSPost2010Prop42
 90
       50
102
RTVSPost2010PropOp42
 70
     1
102
RTVSPost2010Prop43
 90
        3
102
RTVSPost2010PropOp43
 70
     1
102
RTVSPost2010Prop44ColorIndex
 90
        5
102
RTVSPost2010Prop44ColorRGB
 90
      255
102
RTVSPost2010PropOp44
 70
     1
102
RTVSPost2010Prop45
280
     0
102
RTVSPost2010PropOp45
 70
     1
102
RTVSPost2010Prop46
 90
       50
102
RTVSPost2010PropOp46
 70
     1
102
RTVSPost2010Prop47
 90
       50
102
RTVSPost2010PropOp47
 70
     1
102
RTVSPost2010Prop48
 90
       50
102
RTVSPost2010PropOp48
 70
     1
102
RTVSPost2010Prop49
280
     0
102
RTVSPost2010PropOp49
 70
     1
102
RTVSPost2010Prop50
 90
       50
102
RTVSPost2010PropOp50
 70
     1
102
RTVSPost2010Prop51ColorIndex
 90
      256
102
RTVSPost2010Prop51ColorRGB
 90
-16777216
102
RTVSPost2010PropOp51
 70
     0
102
RTVSPost2010Prop52
140
1.0
102
RTVSPost2010PropOp52
 70
     0
102
RTVSPost2010Prop53
 90
        2
102
RTVSPost2010PropOp53
 70
     1
102
RTVSPost2010Prop54
  1
strokes_ogs.tif
102
RTVSPost2010PropOp54
 70
     1
102
RTVSPost2010Prop55
280
     0
102
RTVSPost2010PropOp55
 70
     1
102
RTVSPost2010Prop56
140
1.0
102
RTVSPost2010PropOp56
 70
     1
102
RTVSPost2010Prop57
140
1.0
102
RTVSPost2010PropOp57
 70
     1
102
RTVSPropertyOp0
 70
     1
102
RTVSPropertyOp1
 70
     1
102
RTVSPropertyOp2
 70
     1
102
RTVSPropertyOp3
 70
     1
102
RTVSPropertyOp4
 70
     1
102
RTVSPropertyOp5
 70
     1
102
RTVSPropertyOp6
 70
     1
102
RTVSPropertyOp7
 70
     1
102
RTVSPropertyOp8
 70
     1
102
RTVSPropertyOp9
 70
     1
102
RTVSPropertyOp10
 70
     1
102
RTVSPropertyOp11
 70
     1
102
RTVSPropertyOp12
 70
     1
102
RTVSPropertyOp13
 70
     1
102
RTVSPropertyOp14
 70
     1
102
RTVSPropertyOp15
 70
     1
102
RTVSPropertyOp16
 70
     1
102
RTVSPropertyOp17
 70
     1
102
RTVSPropertyOp18
 70
     1
102
RTVSPropertyOp19
 70
     1
102
RTVSPropertyOp20
 70
     1
102
RTVSPropertyOp21
 70
     1
102
RTVSPropertyOp22
 70
     1
102
RTVSPropertyOp23
 70
     1
102
RTVSPropertyOp24
 70
     1
102
RTVSPropertyOp25
 70
     1
102
RTVSPropertyOp26
 70
     1
102
RTVSPropertyOp27
 70
     1
102
RTVSPropertyOp28
 70
     1
102
RTVSPropertyOp29
 70
     1
102
RTVSPropertyOp30
 70
     1
102
RTVSPropertyOp31
 70
     1
102
RTVSPropertyOp32
 70
     1
102
RTVSPropertyOp33
 70
     1
102
RTVSPropertyOp34
 70
     1
102
RTVSPropertyOp35
 70
     1
102
RTVSPropertyOp36
 70
     1
102
RTVSPropertyOp37
 70
     1
102
RTVSPropertyOp38
 70
     1
102
RTVSPropertyOp39
 70
     1
102
RTVSPropertyOp40
 70
     1
102
RTVSPropertyOp41
 70
     1
102
RTVSPropertyOp42
 70
     1
102
RTVSPropertyOp43
 70
     1
102
RTVSPropertyOp44
 70
     1
102
RTVSPropertyOp45
 70
     1
102
RTVSPropertyOp46
 70
     1
102
RTVSPropertyOp47
 70
     1
102
RTVSPropertyOp48
 70
     1
102
RTVSPropertyOp49
 70
     1
102
RTVSPropertyOp50
 70
     1
102
RTVSPropertyOp51
 70
     0
102
RTVSPropertyOp52
 70
     0
102
RTVSPropertyOp53
 70
     1
102
RTVSPropertyOp54
 70
     1
102
RTVSPropertyOp55
 70
     1
102
RTVSPropertyOp56
 70
     1
102
RTVSPropertyOp57
 70
     1
102
RTVSPropertyOp58
 70
     1
102
RTVSPropertyOp59
 70
     1
102
RTVSPropertyOp60
 70
     1
102
RTVSPropertyOp61
 70
     1
102
RTVSPropertyOp62
 70
     1
  0
XRECORD
  5
D43
102
{ACAD_REACTORS
330
D42
102
}
330
D42
100
AcDbXrecord
280
     1
102
RTVSPost2010Prop28
280
     0
102
RTVSPost2010PropOp28
 70
     1
102
RTVSPost2010Prop29
280
     1
102
RTVSPost2010PropOp29
 70
     1
102
RTVSPost2010Prop30
280
     1
102
RTVSPost2010PropOp30
 70
     1
102
RTVSPost2010Prop31
280
     0
102
RTVSPost2010PropOp31
 70
     1
102
RTVSPost2010Prop32
280
     0
102
RTVSPost2010PropOp32
 70
     1
102
RTVSPost2010Prop33
280
     0
102
RTVSPost2010PropOp33
 70
     1
102
RTVSPost2010Prop34
280
     0
102
RTVSPost2010PropOp34
 70
     1
102
RTVSPost2010Prop35
280
     0
102
RTVSPost2010PropOp35
 70
     1
102
RTVSPost2010Prop36
280
     0
102
RTVSPost2010PropOp36
 70
     1
102
RTVSPost2010Prop37
 90
       50
102
RTVSPost2010PropOp37
 70
     1
102
RTVSPost2010Prop38
140
0.0
102
RTVSPost2010PropOp38
 70
     1
102
RTVSPost2010Prop39
140
1.0
102
RTVSPost2010PropOp39
 70
     1
102
RTVSPost2010Prop40
 90
        0
102
RTVSPost2010PropOp40
 70
     1
102
RTVSPost2010Prop41ColorIndex
 90
       18
102
RTVSPost2010Prop41ColorRGB
 90
        0
102
RTVSPost2010PropOp41
 70
     1
102
RTVSPost2010Prop42
 90
       50
102
RTVSPost2010PropOp42
 70
     1
102
RTVSPost2010Prop43
 90
        3
102
RTVSPost2010PropOp43
 70
     1
102
RTVSPost2010Prop44ColorIndex
 90
        5
102
RTVSPost2010Prop44ColorRGB
 90
      255
102
RTVSPost2010PropOp44
 70
     1
102
RTVSPost2010Prop45
280
     0
102
RTVSPost2010PropOp45
 70
     1
102
RTVSPost2010Prop46
 90
       50
102
RTVSPost2010PropOp46
 70
     1
102
RTVSPost2010Prop47
 90
       50
102
RTVSPost2010PropOp47
 70
     1
102
RTVSPost2010Prop48
 90
       50
102
RTVSPost2010PropOp48
 70
     1
102
RTVSPost2010Prop49
280
     0
102
RTVSPost2010PropOp49
 70
     1
102
RTVSPost2010Prop50
 90
       50
102
RTVSPost2010PropOp50
 70
     1
102
RTVSPost2010Prop51ColorIndex
 90
      256
102
RTVSPost2010Prop51ColorRGB
 90
-16777216
102
RTVSPost2010PropOp51
 70
     0
102
RTVSPost2010Prop52
140
1.0
102
RTVSPost2010PropOp52
 70
     0
102
RTVSPost2010Prop53
 90
        2
102
RTVSPost2010PropOp53
 70
     1
102
RTVSPost2010Prop54
  1
strokes_ogs.tif
102
RTVSPost2010PropOp54
 70
     1
102
RTVSPost2010Prop55
280
     0
102
RTVSPost2010PropOp55
 70
     1
102
RTVSPost2010Prop56
140
1.0
102
RTVSPost2010PropOp56
 70
     1
102
RTVSPost2010Prop57
140
1.0
102
RTVSPost2010PropOp57
 70
     1
102
RTVSPropertyOp0
 70
     1
102
RTVSPropertyOp1
 70
     1
102
RTVSPropertyOp2
 70
     1
102
RTVSPropertyOp3
 70
     1
102
RTVSPropertyOp4
 70
     1
102
RTVSPropertyOp5
 70
     1
102
RTVSPropertyOp6
 70
     1
102
RTVSPropertyOp7
 70
     1
102
RTVSPropertyOp8
 70
     1
102
RTVSPropertyOp9
 70
     1
102
RTVSPropertyOp10
 70
     1
102
RTVSPropertyOp11
 70
     1
102
RTVSPropertyOp12
 70
     1
102
RTVSPropertyOp13
 70
     1
102
RTVSPropertyOp14
 70
     1
102
RTVSPropertyOp15
 70
     1
102
RTVSPropertyOp16
 70
     1
102
RTVSPropertyOp17
 70
     1
102
RTVSPropertyOp18
 70
     1
102
RTVSPropertyOp19
 70
     1
102
RTVSPropertyOp20
 70
     1
102
RTVSPropertyOp21
 70
     1
102
RTVSPropertyOp22
 70
     1
102
RTVSPropertyOp23
 70
     1
102
RTVSPropertyOp24
 70
     1
102
RTVSPropertyOp25
 70
     1
102
RTVSPropertyOp26
 70
     1
102
RTVSPropertyOp27
 70
     1
102
RTVSPropertyOp28
 70
     1
102
RTVSPropertyOp29
 70
     1
102
RTVSPropertyOp30
 70
     1
102
RTVSPropertyOp31
 70
     1
102
RTVSPropertyOp32
 70
     1
102
RTVSPropertyOp33
 70
     1
102
RTVSPropertyOp34
 70
     1
102
RTVSPropertyOp35
 70
     1
102
RTVSPropertyOp36
 70
     1
102
RTVSPropertyOp37
 70
     1
102
RTVSPropertyOp38
 70
     1
102
RTVSPropertyOp39
 70
     1
102
RTVSPropertyOp40
 70
     1
102
RTVSPropertyOp41
 70
     1
102
RTVSPropertyOp42
 70
     1
102
RTVSPropertyOp43
 70
     1
102
RTVSPropertyOp44
 70
     1
102
RTVSPropertyOp45
 70
     1
102
RTVSPropertyOp46
 70
     1
102
RTVSPropertyOp47
 70
     1
102
RTVSPropertyOp48
 70
     1
102
RTVSPropertyOp49
 70
     1
102
RTVSPropertyOp50
 70
     1
102
RTVSPropertyOp51
 70
     0
102
RTVSPropertyOp52
 70
     0
102
RTVSPropertyOp53
 70
     1
102
RTVSPropertyOp54
 70
     1
102
RTVSPropertyOp55
 70
     1
102
RTVSPropertyOp56
 70
     1
102
RTVSPropertyOp57
 70
     1
102
RTVSPropertyOp58
 70
     1
102
RTVSPropertyOp59
 70
     1
102
RTVSPropertyOp60
 70
     1
102
RTVSPropertyOp61
 70
     1
102
RTVSPropertyOp62
 70
     1
  0
XRECORD
  5
D4B
102
{ACAD_REACTORS
330
D4A
102
}
330
D4A
100
AcDbXrecord
280
     1
102
RTVSPost2010Prop28
280
     0
102
RTVSPost2010PropOp28
 70
     1
102
RTVSPost2010Prop29
280
     1
102
RTVSPost2010PropOp29
 70
     1
102
RTVSPost2010Prop30
280
     1
102
RTVSPost2010PropOp30
 70
     1
102
RTVSPost2010Prop31
280
     0
102
RTVSPost2010PropOp31
 70
     1
102
RTVSPost2010Prop32
280
     0
102
RTVSPost2010PropOp32
 70
     1
102
RTVSPost2010Prop33
280
     0
102
RTVSPost2010PropOp33
 70
     1
102
RTVSPost2010Prop34
280
     0
102
RTVSPost2010PropOp34
 70
     1
102
RTVSPost2010Prop35
280
     0
102
RTVSPost2010PropOp35
 70
     1
102
RTVSPost2010Prop36
280
     0
102
RTVSPost2010PropOp36
 70
     1
102
RTVSPost2010Prop37
 90
       50
102
RTVSPost2010PropOp37
 70
     1
102
RTVSPost2010Prop38
140
0.0
102
RTVSPost2010PropOp38
 70
     1
102
RTVSPost2010Prop39
140
1.0
102
RTVSPost2010PropOp39
 70
     1
102
RTVSPost2010Prop40
 90
        0
102
RTVSPost2010PropOp40
 70
     1
102
RTVSPost2010Prop41ColorIndex
 90
       18
102
RTVSPost2010Prop41ColorRGB
 90
        0
102
RTVSPost2010PropOp41
 70
     1
102
RTVSPost2010Prop42
 90
       50
102
RTVSPost2010PropOp42
 70
     1
102
RTVSPost2010Prop43
 90
        3
102
RTVSPost2010PropOp43
 70
     1
102
RTVSPost2010Prop44ColorIndex
 90
        5
102
RTVSPost2010Prop44ColorRGB
 90
      255
102
RTVSPost2010PropOp44
 70
     1
102
RTVSPost2010Prop45
280
     0
102
RTVSPost2010PropOp45
 70
     1
102
RTVSPost2010Prop46
 90
       50
102
RTVSPost2010PropOp46
 70
     1
102
RTVSPost2010Prop47
 90
       50
102
RTVSPost2010PropOp47
 70
     1
102
RTVSPost2010Prop48
 90
       50
102
RTVSPost2010PropOp48
 70
     1
102
RTVSPost2010Prop49
280
     0
102
RTVSPost2010PropOp49
 70
     1
102
RTVSPost2010Prop50
 90
       50
102
RTVSPost2010PropOp50
 70
     1
102
RTVSPost2010Prop51ColorIndex
 90
      256
102
RTVSPost2010Prop51ColorRGB
 90
-16777216
102
RTVSPost2010PropOp51
 70
     0
102
RTVSPost2010Prop52
140
1.0
102
RTVSPost2010PropOp52
 70
     0
102
RTVSPost2010Prop53
 90
        2
102
RTVSPost2010PropOp53
 70
     1
102
RTVSPost2010Prop54
  1
strokes_ogs.tif
102
RTVSPost2010PropOp54
 70
     1
102
RTVSPost2010Prop55
280
     0
102
RTVSPost2010PropOp55
 70
     1
102
RTVSPost2010Prop56
140
1.0
102
RTVSPost2010PropOp56
 70
     1
102
RTVSPost2010Prop57
140
1.0
102
RTVSPost2010PropOp57
 70
     1
102
RTVSPropertyOp0
 70
     1
102
RTVSPropertyOp1
 70
     1
102
RTVSPropertyOp2
 70
     1
102
RTVSPropertyOp3
 70
     1
102
RTVSPropertyOp4
 70
     1
102
RTVSPropertyOp5
 70
     1
102
RTVSPropertyOp6
 70
     1
102
RTVSPropertyOp7
 70
     1
102
RTVSPropertyOp8
 70
     1
102
RTVSPropertyOp9
 70
     1
102
RTVSPropertyOp10
 70
     1
102
RTVSPropertyOp11
 70
     1
102
RTVSPropertyOp12
 70
     1
102
RTVSPropertyOp13
 70
     1
102
RTVSPropertyOp14
 70
     1
102
RTVSPropertyOp15
 70
     1
102
RTVSPropertyOp16
 70
     1
102
RTVSPropertyOp17
 70
     1
102
RTVSPropertyOp18
 70
     1
102
RTVSPropertyOp19
 70
     1
102
RTVSPropertyOp20
 70
     1
102
RTVSPropertyOp21
 70
     1
102
RTVSPropertyOp22
 70
     1
102
RTVSPropertyOp23
 70
     1
102
RTVSPropertyOp24
 70
     1
102
RTVSPropertyOp25
 70
     1
102
RTVSPropertyOp26
 70
     1
102
RTVSPropertyOp27
 70
     1
102
RTVSPropertyOp28
 70
     1
102
RTVSPropertyOp29
 70
     1
102
RTVSPropertyOp30
 70
     1
102
RTVSPropertyOp31
 70
     1
102
RTVSPropertyOp32
 70
     1
102
RTVSPropertyOp33
 70
     1
102
RTVSPropertyOp34
 70
     1
102
RTVSPropertyOp35
 70
     1
102
RTVSPropertyOp36
 70
     1
102
RTVSPropertyOp37
 70
     1
102
RTVSPropertyOp38
 70
     1
102
RTVSPropertyOp39
 70
     1
102
RTVSPropertyOp40
 70
     1
102
RTVSPropertyOp41
 70
     1
102
RTVSPropertyOp42
 70
     1
102
RTVSPropertyOp43
 70
     1
102
RTVSPropertyOp44
 70
     1
102
RTVSPropertyOp45
 70
     1
102
RTVSPropertyOp46
 70
     1
102
RTVSPropertyOp47
 70
     1
102
RTVSPropertyOp48
 70
     1
102
RTVSPropertyOp49
 70
     1
102
RTVSPropertyOp50
 70
     1
102
RTVSPropertyOp51
 70
     0
102
RTVSPropertyOp52
 70
     0
102
RTVSPropertyOp53
 70
     1
102
RTVSPropertyOp54
 70
     1
102
RTVSPropertyOp55
 70
     1
102
RTVSPropertyOp56
 70
     1
102
RTVSPropertyOp57
 70
     1
102
RTVSPropertyOp58
 70
     1
102
RTVSPropertyOp59
 70
     1
102
RTVSPropertyOp60
 70
     1
102
RTVSPropertyOp61
 70
     1
102
RTVSPropertyOp62
 70
     1
  0
XRECORD
  5
D5F
102
{ACAD_REACTORS
330
D5E
102
}
330
D5E
100
AcDbXrecord
280
     1
102
RTVSPost2010Prop28
280
     0
102
RTVSPost2010PropOp28
 70
     1
102
RTVSPost2010Prop29
280
     1
102
RTVSPost2010PropOp29
 70
     1
102
RTVSPost2010Prop30
280
     1
102
RTVSPost2010PropOp30
 70
     1
102
RTVSPost2010Prop31
280
     0
102
RTVSPost2010PropOp31
 70
     1
102
RTVSPost2010Prop32
280
     0
102
RTVSPost2010PropOp32
 70
     1
102
RTVSPost2010Prop33
280
     0
102
RTVSPost2010PropOp33
 70
     1
102
RTVSPost2010Prop34
280
     0
102
RTVSPost2010PropOp34
 70
     1
102
RTVSPost2010Prop35
280
     0
102
RTVSPost2010PropOp35
 70
     1
102
RTVSPost2010Prop36
280
     0
102
RTVSPost2010PropOp36
 70
     1
102
RTVSPost2010Prop37
 90
       50
102
RTVSPost2010PropOp37
 70
     1
102
RTVSPost2010Prop38
140
0.0
102
RTVSPost2010PropOp38
 70
     1
102
RTVSPost2010Prop39
140
1.0
102
RTVSPost2010PropOp39
 70
     1
102
RTVSPost2010Prop40
 90
        0
102
RTVSPost2010PropOp40
 70
     1
102
RTVSPost2010Prop41ColorIndex
 90
       18
102
RTVSPost2010Prop41ColorRGB
 90
        0
102
RTVSPost2010PropOp41
 70
     1
102
RTVSPost2010Prop42
 90
       50
102
RTVSPost2010PropOp42
 70
     1
102
RTVSPost2010Prop43
 90
        3
102
RTVSPost2010PropOp43
 70
     1
102
RTVSPost2010Prop44ColorIndex
 90
        5
102
RTVSPost2010Prop44ColorRGB
 90
      255
102
RTVSPost2010PropOp44
 70
     1
102
RTVSPost2010Prop45
280
     0
102
RTVSPost2010PropOp45
 70
     1
102
RTVSPost2010Prop46
 90
       50
102
RTVSPost2010PropOp46
 70
     1
102
RTVSPost2010Prop47
 90
       50
102
RTVSPost2010PropOp47
 70
     1
102
RTVSPost2010Prop48
 90
       50
102
RTVSPost2010PropOp48
 70
     1
102
RTVSPost2010Prop49
280
     0
102
RTVSPost2010PropOp49
 70
     1
102
RTVSPost2010Prop50
 90
       50
102
RTVSPost2010PropOp50
 70
     1
102
RTVSPost2010Prop51ColorIndex
 90
      256
102
RTVSPost2010Prop51ColorRGB
 90
-16777216
102
RTVSPost2010PropOp51
 70
     0
102
RTVSPost2010Prop52
140
1.0
102
RTVSPost2010PropOp52
 70
     0
102
RTVSPost2010Prop53
 90
        2
102
RTVSPost2010PropOp53
 70
     1
102
RTVSPost2010Prop54
  1
strokes_ogs.tif
102
RTVSPost2010PropOp54
 70
     1
102
RTVSPost2010Prop55
280
     0
102
RTVSPost2010PropOp55
 70
     1
102
RTVSPost2010Prop56
140
1.0
102
RTVSPost2010PropOp56
 70
     1
102
RTVSPost2010Prop57
140
1.0
102
RTVSPost2010PropOp57
 70
     1
102
RTVSPropertyOp0
 70
     0
102
RTVSPropertyOp1
 70
     0
102
RTVSPropertyOp2
 70
     0
102
RTVSPropertyOp3
 70
     0
102
RTVSPropertyOp4
 70
     0
102
RTVSPropertyOp5
 70
     0
102
RTVSPropertyOp6
 70
     0
102
RTVSPropertyOp7
 70
     0
102
RTVSPropertyOp8
 70
     0
102
RTVSPropertyOp9
 70
     0
102
RTVSPropertyOp10
 70
     0
102
RTVSPropertyOp11
 70
     0
102
RTVSPropertyOp12
 70
     0
102
RTVSPropertyOp13
 70
     0
102
RTVSPropertyOp14
 70
     2
102
RTVSPropertyOp15
 70
     0
102
RTVSPropertyOp16
 70
     0
102
RTVSPropertyOp17
 70
     0
102
RTVSPropertyOp18
 70
     0
102
RTVSPropertyOp19
 70
     0
102
RTVSPropertyOp20
 70
     0
102
RTVSPropertyOp21
 70
     0
102
RTVSPropertyOp22
 70
     0
102
RTVSPropertyOp23
 70
     0
102
RTVSPropertyOp24
 70
     0
102
RTVSPropertyOp25
 70
     0
102
RTVSPropertyOp26
 70
     0
102
RTVSPropertyOp27
 70
     0
102
RTVSPropertyOp28
 70
     1
102
RTVSPropertyOp29
 70
     1
102
RTVSPropertyOp30
 70
     1
102
RTVSPropertyOp31
 70
     1
102
RTVSPropertyOp32
 70
     1
102
RTVSPropertyOp33
 70
     1
102
RTVSPropertyOp34
 70
     1
102
RTVSPropertyOp35
 70
     1
102
RTVSPropertyOp36
 70
     1
102
RTVSPropertyOp37
 70
     1
102
RTVSPropertyOp38
 70
     1
102
RTVSPropertyOp39
 70
     1
102
RTVSPropertyOp40
 70
     1
102
RTVSPropertyOp41
 70
     1
102
RTVSPropertyOp42
 70
     1
102
RTVSPropertyOp43
 70
     1
102
RTVSPropertyOp44
 70
     1
102
RTVSPropertyOp45
 70
     1
102
RTVSPropertyOp46
 70
     1
102
RTVSPropertyOp47
 70
     1
102
RTVSPropertyOp48
 70
     1
102
RTVSPropertyOp49
 70
     1
102
RTVSPropertyOp50
 70
     1
102
RTVSPropertyOp51
 70
     0
102
RTVSPropertyOp52
 70
     0
102
RTVSPropertyOp53
 70
     1
102
RTVSPropertyOp54
 70
     1
102
RTVSPropertyOp55
 70
     1
102
RTVSPropertyOp56
 70
     1
102
RTVSPropertyOp57
 70
     1
102
RTVSPropertyOp58
 70
     1
102
RTVSPropertyOp59
 70
     1
102
RTVSPropertyOp60
 70
     1
102
RTVSPropertyOp61
 70
     1
102
RTVSPropertyOp62
 70
     1
  0
XRECORD
  5
D57
102
{ACAD_REACTORS
330
D56
102
}
330
D56
100
AcDbXrecord
280
     1
102
RTVSPost2010Prop28
280
     0
102
RTVSPost2010PropOp28
 70
     1
102
RTVSPost2010Prop29
280
     1
102
RTVSPost2010PropOp29
 70
     1
102
RTVSPost2010Prop30
280
     1
102
RTVSPost2010PropOp30
 70
     1
102
RTVSPost2010Prop31
280
     0
102
RTVSPost2010PropOp31
 70
     1
102
RTVSPost2010Prop32
280
     0
102
RTVSPost2010PropOp32
 70
     1
102
RTVSPost2010Prop33
280
     0
102
RTVSPost2010PropOp33
 70
     1
102
RTVSPost2010Prop34
280
     0
102
RTVSPost2010PropOp34
 70
     1
102
RTVSPost2010Prop35
280
     0
102
RTVSPost2010PropOp35
 70
     1
102
RTVSPost2010Prop36
280
     0
102
RTVSPost2010PropOp36
 70
     1
102
RTVSPost2010Prop37
 90
       50
102
RTVSPost2010PropOp37
 70
     1
102
RTVSPost2010Prop38
140
0.0
102
RTVSPost2010PropOp38
 70
     1
102
RTVSPost2010Prop39
140
1.0
102
RTVSPost2010PropOp39
 70
     1
102
RTVSPost2010Prop40
 90
        0
102
RTVSPost2010PropOp40
 70
     1
102
RTVSPost2010Prop41ColorIndex
 90
       18
102
RTVSPost2010Prop41ColorRGB
 90
        0
102
RTVSPost2010PropOp41
 70
     1
102
RTVSPost2010Prop42
 90
       50
102
RTVSPost2010PropOp42
 70
     1
102
RTVSPost2010Prop43
 90
        3
102
RTVSPost2010PropOp43
 70
     1
102
RTVSPost2010Prop44ColorIndex
 90
        5
102
RTVSPost2010Prop44ColorRGB
 90
      255
102
RTVSPost2010PropOp44
 70
     1
102
RTVSPost2010Prop45
280
     0
102
RTVSPost2010PropOp45
 70
     1
102
RTVSPost2010Prop46
 90
       50
102
RTVSPost2010PropOp46
 70
     1
102
RTVSPost2010Prop47
 90
       50
102
RTVSPost2010PropOp47
 70
     1
102
RTVSPost2010Prop48
 90
       50
102
RTVSPost2010PropOp48
 70
     1
102
RTVSPost2010Prop49
280
     0
102
RTVSPost2010PropOp49
 70
     1
102
RTVSPost2010Prop50
 90
       50
102
RTVSPost2010PropOp50
 70
     1
102
RTVSPost2010Prop51ColorIndex
 90
      256
102
RTVSPost2010Prop51ColorRGB
 90
-16777216
102
RTVSPost2010PropOp51
 70
     0
102
RTVSPost2010Prop52
140
1.0
102
RTVSPost2010PropOp52
 70
     0
102
RTVSPost2010Prop53
 90
        2
102
RTVSPost2010PropOp53
 70
     1
102
RTVSPost2010Prop54
  1
strokes_ogs.tif
102
RTVSPost2010PropOp54
 70
     1
102
RTVSPost2010Prop55
280
     0
102
RTVSPost2010PropOp55
 70
     1
102
RTVSPost2010Prop56
140
1.0
102
RTVSPost2010PropOp56
 70
     1
102
RTVSPost2010Prop57
140
1.0
102
RTVSPost2010PropOp57
 70
     1
102
RTVSPropertyOp0
 70
     1
102
RTVSPropertyOp1
 70
     1
102
RTVSPropertyOp2
 70
     1
102
RTVSPropertyOp3
 70
     1
102
RTVSPropertyOp4
 70
     1
102
RTVSPropertyOp5
 70
     1
102
RTVSPropertyOp6
 70
     1
102
RTVSPropertyOp7
 70
     1
102
RTVSPropertyOp8
 70
     1
102
RTVSPropertyOp9
 70
     1
102
RTVSPropertyOp10
 70
     1
102
RTVSPropertyOp11
 70
     1
102
RTVSPropertyOp12
 70
     1
102
RTVSPropertyOp13
 70
     1
102
RTVSPropertyOp14
 70
     1
102
RTVSPropertyOp15
 70
     1
102
RTVSPropertyOp16
 70
     1
102
RTVSPropertyOp17
 70
     1
102
RTVSPropertyOp18
 70
     1
102
RTVSPropertyOp19
 70
     1
102
RTVSPropertyOp20
 70
     1
102
RTVSPropertyOp21
 70
     1
102
RTVSPropertyOp22
 70
     1
102
RTVSPropertyOp23
 70
     1
102
RTVSPropertyOp24
 70
     1
102
RTVSPropertyOp25
 70
     1
102
RTVSPropertyOp26
 70
     1
102
RTVSPropertyOp27
 70
     1
102
RTVSPropertyOp28
 70
     1
102
RTVSPropertyOp29
 70
     1
102
RTVSPropertyOp30
 70
     1
102
RTVSPropertyOp31
 70
     1
102
RTVSPropertyOp32
 70
     1
102
RTVSPropertyOp33
 70
     1
102
RTVSPropertyOp34
 70
     1
102
RTVSPropertyOp35
 70
     1
102
RTVSPropertyOp36
 70
     1
102
RTVSPropertyOp37
 70
     1
102
RTVSPropertyOp38
 70
     1
102
RTVSPropertyOp39
 70
     1
102
RTVSPropertyOp40
 70
     1
102
RTVSPropertyOp41
 70
     1
102
RTVSPropertyOp42
 70
     1
102
RTVSPropertyOp43
 70
     1
102
RTVSPropertyOp44
 70
     1
102
RTVSPropertyOp45
 70
     1
102
RTVSPropertyOp46
 70
     1
102
RTVSPropertyOp47
 70
     1
102
RTVSPropertyOp48
 70
     1
102
RTVSPropertyOp49
 70
     1
102
RTVSPropertyOp50
 70
     1
102
RTVSPropertyOp51
 70
     0
102
RTVSPropertyOp52
 70
     0
102
RTVSPropertyOp53
 70
     1
102
RTVSPropertyOp54
 70
     1
102
RTVSPropertyOp55
 70
     1
102
RTVSPropertyOp56
 70
     1
102
RTVSPropertyOp57
 70
     1
102
RTVSPropertyOp58
 70
     1
102
RTVSPropertyOp59
 70
     1
102
RTVSPropertyOp60
 70
     1
102
RTVSPropertyOp61
 70
     1
102
RTVSPropertyOp62
 70
     1
  0
XRECORD
  5
D61
102
{ACAD_REACTORS
330
D60
102
}
330
D60
100
AcDbXrecord
280
     1
102
RTVSPost2010Prop28
280
     0
102
RTVSPost2010PropOp28
 70
     1
102
RTVSPost2010Prop29
280
     1
102
RTVSPost2010PropOp29
 70
     1
102
RTVSPost2010Prop30
280
     1
102
RTVSPost2010PropOp30
 70
     1
102
RTVSPost2010Prop31
280
     0
102
RTVSPost2010PropOp31
 70
     1
102
RTVSPost2010Prop32
280
     0
102
RTVSPost2010PropOp32
 70
     1
102
RTVSPost2010Prop33
280
     0
102
RTVSPost2010PropOp33
 70
     1
102
RTVSPost2010Prop34
280
     0
102
RTVSPost2010PropOp34
 70
     1
102
RTVSPost2010Prop35
280
     0
102
RTVSPost2010PropOp35
 70
     1
102
RTVSPost2010Prop36
280
     0
102
RTVSPost2010PropOp36
 70
     1
102
RTVSPost2010Prop37
 90
       50
102
RTVSPost2010PropOp37
 70
     1
102
RTVSPost2010Prop38
140
0.0
102
RTVSPost2010PropOp38
 70
     1
102
RTVSPost2010Prop39
140
1.0
102
RTVSPost2010PropOp39
 70
     1
102
RTVSPost2010Prop40
 90
        0
102
RTVSPost2010PropOp40
 70
     1
102
RTVSPost2010Prop41ColorIndex
 90
       18
102
RTVSPost2010Prop41ColorRGB
 90
        0
102
RTVSPost2010PropOp41
 70
     1
102
RTVSPost2010Prop42
 90
       50
102
RTVSPost2010PropOp42
 70
     1
102
RTVSPost2010Prop43
 90
        3
102
RTVSPost2010PropOp43
 70
     1
102
RTVSPost2010Prop44ColorIndex
 90
        5
102
RTVSPost2010Prop44ColorRGB
 90
      255
102
RTVSPost2010PropOp44
 70
     1
102
RTVSPost2010Prop45
280
     0
102
RTVSPost2010PropOp45
 70
     1
102
RTVSPost2010Prop46
 90
       50
102
RTVSPost2010PropOp46
 70
     1
102
RTVSPost2010Prop47
 90
       50
102
RTVSPost2010PropOp47
 70
     1
102
RTVSPost2010Prop48
 90
       50
102
RTVSPost2010PropOp48
 70
     1
102
RTVSPost2010Prop49
280
     0
102
RTVSPost2010PropOp49
 70
     1
102
RTVSPost2010Prop50
 90
       50
102
RTVSPost2010PropOp50
 70
     1
102
RTVSPost2010Prop51ColorIndex
 90
      256
102
RTVSPost2010Prop51ColorRGB
 90
-16777216
102
RTVSPost2010PropOp51
 70
     0
102
RTVSPost2010Prop52
140
1.0
102
RTVSPost2010PropOp52
 70
     0
102
RTVSPost2010Prop53
 90
        2
102
RTVSPost2010PropOp53
 70
     1
102
RTVSPost2010Prop54
  1
strokes_ogs.tif
102
RTVSPost2010PropOp54
 70
     1
102
RTVSPost2010Prop55
280
     0
102
RTVSPost2010PropOp55
 70
     1
102
RTVSPost2010Prop56
140
1.0
102
RTVSPost2010PropOp56
 70
     1
102
RTVSPost2010Prop57
140
1.0
102
RTVSPost2010PropOp57
 70
     1
102
RTVSPropertyOp0
 70
     0
102
RTVSPropertyOp1
 70
     0
102
RTVSPropertyOp2
 70
     0
102
RTVSPropertyOp3
 70
     0
102
RTVSPropertyOp4
 70
     0
102
RTVSPropertyOp5
 70
     0
102
RTVSPropertyOp6
 70
     0
102
RTVSPropertyOp7
 70
     0
102
RTVSPropertyOp8
 70
     0
102
RTVSPropertyOp9
 70
     0
102
RTVSPropertyOp10
 70
     0
102
RTVSPropertyOp11
 70
     0
102
RTVSPropertyOp12
 70
     0
102
RTVSPropertyOp13
 70
     0
102
RTVSPropertyOp14
 70
     2
102
RTVSPropertyOp15
 70
     0
102
RTVSPropertyOp16
 70
     0
102
RTVSPropertyOp17
 70
     0
102
RTVSPropertyOp18
 70
     0
102
RTVSPropertyOp19
 70
     0
102
RTVSPropertyOp20
 70
     0
102
RTVSPropertyOp21
 70
     0
102
RTVSPropertyOp22
 70
     0
102
RTVSPropertyOp23
 70
     0
102
RTVSPropertyOp24
 70
     0
102
RTVSPropertyOp25
 70
     0
102
RTVSPropertyOp26
 70
     0
102
RTVSPropertyOp27
 70
     0
102
RTVSPropertyOp28
 70
     1
102
RTVSPropertyOp29
 70
     1
102
RTVSPropertyOp30
 70
     1
102
RTVSPropertyOp31
 70
     1
102
RTVSPropertyOp32
 70
     1
102
RTVSPropertyOp33
 70
     1
102
RTVSPropertyOp34
 70
     1
102
RTVSPropertyOp35
 70
     1
102
RTVSPropertyOp36
 70
     1
102
RTVSPropertyOp37
 70
     1
102
RTVSPropertyOp38
 70
     1
102
RTVSPropertyOp39
 70
     1
102
RTVSPropertyOp40
 70
     1
102
RTVSPropertyOp41
 70
     1
102
RTVSPropertyOp42
 70
     1
102
RTVSPropertyOp43
 70
     1
102
RTVSPropertyOp44
 70
     1
102
RTVSPropertyOp45
 70
     1
102
RTVSPropertyOp46
 70
     1
102
RTVSPropertyOp47
 70
     1
102
RTVSPropertyOp48
 70
     1
102
RTVSPropertyOp49
 70
     1
102
RTVSPropertyOp50
 70
     1
102
RTVSPropertyOp51
 70
     0
102
RTVSPropertyOp52
 70
     0
102
RTVSPropertyOp53
 70
     1
102
RTVSPropertyOp54
 70
     1
102
RTVSPropertyOp55
 70
     1
102
RTVSPropertyOp56
 70
     1
102
RTVSPropertyOp57
 70
     1
102
RTVSPropertyOp58
 70
     1
102
RTVSPropertyOp59
 70
     1
102
RTVSPropertyOp60
 70
     1
102
RTVSPropertyOp61
 70
     1
102
RTVSPropertyOp62
 70
     1
  0
XRECORD
  5
D4F
102
{ACAD_REACTORS
330
D4E
102
}
330
D4E
100
AcDbXrecord
280
     1
102
RTVSPost2010Prop28
280
     0
102
RTVSPost2010PropOp28
 70
     1
102
RTVSPost2010Prop29
280
     1
102
RTVSPost2010PropOp29
 70
     1
102
RTVSPost2010Prop30
280
     1
102
RTVSPost2010PropOp30
 70
     1
102
RTVSPost2010Prop31
280
     0
102
RTVSPost2010PropOp31
 70
     1
102
RTVSPost2010Prop32
280
     0
102
RTVSPost2010PropOp32
 70
     1
102
RTVSPost2010Prop33
280
     0
102
RTVSPost2010PropOp33
 70
     1
102
RTVSPost2010Prop34
280
     0
102
RTVSPost2010PropOp34
 70
     1
102
RTVSPost2010Prop35
280
     0
102
RTVSPost2010PropOp35
 70
     1
102
RTVSPost2010Prop36
280
     0
102
RTVSPost2010PropOp36
 70
     1
102
RTVSPost2010Prop37
 90
       50
102
RTVSPost2010PropOp37
 70
     1
102
RTVSPost2010Prop38
140
0.0
102
RTVSPost2010PropOp38
 70
     1
102
RTVSPost2010Prop39
140
1.0
102
RTVSPost2010PropOp39
 70
     1
102
RTVSPost2010Prop40
 90
        0
102
RTVSPost2010PropOp40
 70
     1
102
RTVSPost2010Prop41ColorIndex
 90
       18
102
RTVSPost2010Prop41ColorRGB
 90
        0
102
RTVSPost2010PropOp41
 70
     1
102
RTVSPost2010Prop42
 90
       50
102
RTVSPost2010PropOp42
 70
     1
102
RTVSPost2010Prop43
 90
        3
102
RTVSPost2010PropOp43
 70
     1
102
RTVSPost2010Prop44ColorIndex
 90
        5
102
RTVSPost2010Prop44ColorRGB
 90
      255
102
RTVSPost2010PropOp44
 70
     1
102
RTVSPost2010Prop45
280
     0
102
RTVSPost2010PropOp45
 70
     1
102
RTVSPost2010Prop46
 90
       50
102
RTVSPost2010PropOp46
 70
     1
102
RTVSPost2010Prop47
 90
       50
102
RTVSPost2010PropOp47
 70
     1
102
RTVSPost2010Prop48
 90
       50
102
RTVSPost2010PropOp48
 70
     1
102
RTVSPost2010Prop49
280
     0
102
RTVSPost2010PropOp49
 70
     1
102
RTVSPost2010Prop50
 90
       50
102
RTVSPost2010PropOp50
 70
     1
102
RTVSPost2010Prop51ColorIndex
 90
      256
102
RTVSPost2010Prop51ColorRGB
 90
-16777216
102
RTVSPost2010PropOp51
 70
     0
102
RTVSPost2010Prop52
140
1.0
102
RTVSPost2010PropOp52
 70
     0
102
RTVSPost2010Prop53
 90
        2
102
RTVSPost2010PropOp53
 70
     1
102
RTVSPost2010Prop54
  1
strokes_ogs.tif
102
RTVSPost2010PropOp54
 70
     1
102
RTVSPost2010Prop55
280
     0
102
RTVSPost2010PropOp55
 70
     1
102
RTVSPost2010Prop56
140
1.0
102
RTVSPost2010PropOp56
 70
     1
102
RTVSPost2010Prop57
140
1.0
102
RTVSPost2010PropOp57
 70
     1
102
RTVSPropertyOp0
 70
     1
102
RTVSPropertyOp1
 70
     1
102
RTVSPropertyOp2
 70
     1
102
RTVSPropertyOp3
 70
     1
102
RTVSPropertyOp4
 70
     1
102
RTVSPropertyOp5
 70
     1
102
RTVSPropertyOp6
 70
     1
102
RTVSPropertyOp7
 70
     1
102
RTVSPropertyOp8
 70
     1
102
RTVSPropertyOp9
 70
     1
102
RTVSPropertyOp10
 70
     1
102
RTVSPropertyOp11
 70
     1
102
RTVSPropertyOp12
 70
     1
102
RTVSPropertyOp13
 70
     1
102
RTVSPropertyOp14
 70
     1
102
RTVSPropertyOp15
 70
     1
102
RTVSPropertyOp16
 70
     1
102
RTVSPropertyOp17
 70
     1
102
RTVSPropertyOp18
 70
     1
102
RTVSPropertyOp19
 70
     1
102
RTVSPropertyOp20
 70
     1
102
RTVSPropertyOp21
 70
     1
102
RTVSPropertyOp22
 70
     1
102
RTVSPropertyOp23
 70
     1
102
RTVSPropertyOp24
 70
     1
102
RTVSPropertyOp25
 70
     1
102
RTVSPropertyOp26
 70
     1
102
RTVSPropertyOp27
 70
     1
102
RTVSPropertyOp28
 70
     1
102
RTVSPropertyOp29
 70
     1
102
RTVSPropertyOp30
 70
     1
102
RTVSPropertyOp31
 70
     1
102
RTVSPropertyOp32
 70
     1
102
RTVSPropertyOp33
 70
     1
102
RTVSPropertyOp34
 70
     1
102
RTVSPropertyOp35
 70
     1
102
RTVSPropertyOp36
 70
     1
102
RTVSPropertyOp37
 70
     1
102
RTVSPropertyOp38
 70
     1
102
RTVSPropertyOp39
 70
     1
102
RTVSPropertyOp40
 70
     1
102
RTVSPropertyOp41
 70
     1
102
RTVSPropertyOp42
 70
     1
102
RTVSPropertyOp43
 70
     1
102
RTVSPropertyOp44
 70
     1
102
RTVSPropertyOp45
 70
     1
102
RTVSPropertyOp46
 70
     1
102
RTVSPropertyOp47
 70
     1
102
RTVSPropertyOp48
 70
     1
102
RTVSPropertyOp49
 70
     1
102
RTVSPropertyOp50
 70
     1
102
RTVSPropertyOp51
 70
     0
102
RTVSPropertyOp52
 70
     0
102
RTVSPropertyOp53
 70
     1
102
RTVSPropertyOp54
 70
     1
102
RTVSPropertyOp55
 70
     1
102
RTVSPropertyOp56
 70
     1
102
RTVSPropertyOp57
 70
     1
102
RTVSPropertyOp58
 70
     1
102
RTVSPropertyOp59
 70
     1
102
RTVSPropertyOp60
 70
     1
102
RTVSPropertyOp61
 70
     1
102
RTVSPropertyOp62
 70
     1
  0
XRECORD
  5
D6D
102
{ACAD_REACTORS
330
D6C
102
}
330
D6C
100
AcDbXrecord
280
     1
102
RTVSPost2010Prop28
280
     0
102
RTVSPost2010PropOp28
 70
     1
102
RTVSPost2010Prop29
280
     1
102
RTVSPost2010PropOp29
 70
     1
102
RTVSPost2010Prop30
280
     1
102
RTVSPost2010PropOp30
 70
     1
102
RTVSPost2010Prop31
280
     0
102
RTVSPost2010PropOp31
 70
     1
102
RTVSPost2010Prop32
280
     0
102
RTVSPost2010PropOp32
 70
     1
102
RTVSPost2010Prop33
280
     0
102
RTVSPost2010PropOp33
 70
     1
102
RTVSPost2010Prop34
280
     0
102
RTVSPost2010PropOp34
 70
     1
102
RTVSPost2010Prop35
280
     0
102
RTVSPost2010PropOp35
 70
     1
102
RTVSPost2010Prop36
280
     0
102
RTVSPost2010PropOp36
 70
     1
102
RTVSPost2010Prop37
 90
       50
102
RTVSPost2010PropOp37
 70
     1
102
RTVSPost2010Prop38
140
0.0
102
RTVSPost2010PropOp38
 70
     1
102
RTVSPost2010Prop39
140
1.0
102
RTVSPost2010PropOp39
 70
     1
102
RTVSPost2010Prop40
 90
        0
102
RTVSPost2010PropOp40
 70
     1
102
RTVSPost2010Prop41ColorIndex
 90
       18
102
RTVSPost2010Prop41ColorRGB
 90
        0
102
RTVSPost2010PropOp41
 70
     1
102
RTVSPost2010Prop42
 90
       50
102
RTVSPost2010PropOp42
 70
     1
102
RTVSPost2010Prop43
 90
        3
102
RTVSPost2010PropOp43
 70
     1
102
RTVSPost2010Prop44ColorIndex
 90
        5
102
RTVSPost2010Prop44ColorRGB
 90
      255
102
RTVSPost2010PropOp44
 70
     1
102
RTVSPost2010Prop45
280
     0
102
RTVSPost2010PropOp45
 70
     1
102
RTVSPost2010Prop46
 90
       50
102
RTVSPost2010PropOp46
 70
     1
102
RTVSPost2010Prop47
 90
       50
102
RTVSPost2010PropOp47
 70
     1
102
RTVSPost2010Prop48
 90
       50
102
RTVSPost2010PropOp48
 70
     1
102
RTVSPost2010Prop49
280
     0
102
RTVSPost2010PropOp49
 70
     1
102
RTVSPost2010Prop50
 90
       50
102
RTVSPost2010PropOp50
 70
     1
102
RTVSPost2010Prop51ColorIndex
 90
      256
102
RTVSPost2010Prop51ColorRGB
 90
-16777216
102
RTVSPost2010PropOp51
 70
     0
102
RTVSPost2010Prop52
140
1.0
102
RTVSPost2010PropOp52
 70
     0
102
RTVSPost2010Prop53
 90
        2
102
RTVSPost2010PropOp53
 70
     1
102
RTVSPost2010Prop54
  1
strokes_ogs.tif
102
RTVSPost2010PropOp54
 70
     1
102
RTVSPost2010Prop55
280
     0
102
RTVSPost2010PropOp55
 70
     1
102
RTVSPost2010Prop56
140
1.0
102
RTVSPost2010PropOp56
 70
     1
102
RTVSPost2010Prop57
140
1.0
102
RTVSPost2010PropOp57
 70
     1
102
RTVSPropertyOp0
 70
     1
102
RTVSPropertyOp1
 70
     1
102
RTVSPropertyOp2
 70
     1
102
RTVSPropertyOp3
 70
     1
102
RTVSPropertyOp4
 70
     1
102
RTVSPropertyOp5
 70
     1
102
RTVSPropertyOp6
 70
     1
102
RTVSPropertyOp7
 70
     1
102
RTVSPropertyOp8
 70
     1
102
RTVSPropertyOp9
 70
     1
102
RTVSPropertyOp10
 70
     1
102
RTVSPropertyOp11
 70
     1
102
RTVSPropertyOp12
 70
     1
102
RTVSPropertyOp13
 70
     1
102
RTVSPropertyOp14
 70
     1
102
RTVSPropertyOp15
 70
     1
102
RTVSPropertyOp16
 70
     1
102
RTVSPropertyOp17
 70
     1
102
RTVSPropertyOp18
 70
     1
102
RTVSPropertyOp19
 70
     1
102
RTVSPropertyOp20
 70
     1
102
RTVSPropertyOp21
 70
     1
102
RTVSPropertyOp22
 70
     1
102
RTVSPropertyOp23
 70
     1
102
RTVSPropertyOp24
 70
     1
102
RTVSPropertyOp25
 70
     1
102
RTVSPropertyOp26
 70
     1
102
RTVSPropertyOp27
 70
     1
102
RTVSPropertyOp28
 70
     1
102
RTVSPropertyOp29
 70
     1
102
RTVSPropertyOp30
 70
     1
102
RTVSPropertyOp31
 70
     1
102
RTVSPropertyOp32
 70
     1
102
RTVSPropertyOp33
 70
     1
102
RTVSPropertyOp34
 70
     1
102
RTVSPropertyOp35
 70
     1
102
RTVSPropertyOp36
 70
     1
102
RTVSPropertyOp37
 70
     1
102
RTVSPropertyOp38
 70
     1
102
RTVSPropertyOp39
 70
     1
102
RTVSPropertyOp40
 70
     1
102
RTVSPropertyOp41
 70
     1
102
RTVSPropertyOp42
 70
     1
102
RTVSPropertyOp43
 70
     1
102
RTVSPropertyOp44
 70
     1
102
RTVSPropertyOp45
 70
     1
102
RTVSPropertyOp46
 70
     1
102
RTVSPropertyOp47
 70
     1
102
RTVSPropertyOp48
 70
     1
102
RTVSPropertyOp49
 70
     1
102
RTVSPropertyOp50
 70
     1
102
RTVSPropertyOp51
 70
     0
102
RTVSPropertyOp52
 70
     0
102
RTVSPropertyOp53
 70
     1
102
RTVSPropertyOp54
 70
     1
102
RTVSPropertyOp55
 70
     1
102
RTVSPropertyOp56
 70
     1
102
RTVSPropertyOp57
 70
     1
102
RTVSPropertyOp58
 70
     1
102
RTVSPropertyOp59
 70
     1
102
RTVSPropertyOp60
 70
     1
102
RTVSPropertyOp61
 70
     1
102
RTVSPropertyOp62
 70
     1
  0
XRECORD
  5
D6B
102
{ACAD_REACTORS
330
D6A
102
}
330
D6A
100
AcDbXrecord
280
     1
102
RTVSPost2010Prop28
280
     0
102
RTVSPost2010PropOp28
 70
     1
102
RTVSPost2010Prop29
280
     1
102
RTVSPost2010PropOp29
 70
     1
102
RTVSPost2010Prop30
280
     1
102
RTVSPost2010PropOp30
 70
     1
102
RTVSPost2010Prop31
280
     0
102
RTVSPost2010PropOp31
 70
     1
102
RTVSPost2010Prop32
280
     0
102
RTVSPost2010PropOp32
 70
     1
102
RTVSPost2010Prop33
280
     0
102
RTVSPost2010PropOp33
 70
     1
102
RTVSPost2010Prop34
280
     0
102
RTVSPost2010PropOp34
 70
     1
102
RTVSPost2010Prop35
280
     0
102
RTVSPost2010PropOp35
 70
     1
102
RTVSPost2010Prop36
280
     0
102
RTVSPost2010PropOp36
 70
     1
102
RTVSPost2010Prop37
 90
       50
102
RTVSPost2010PropOp37
 70
     1
102
RTVSPost2010Prop38
140
0.0
102
RTVSPost2010PropOp38
 70
     1
102
RTVSPost2010Prop39
140
1.0
102
RTVSPost2010PropOp39
 70
     1
102
RTVSPost2010Prop40
 90
        0
102
RTVSPost2010PropOp40
 70
     1
102
RTVSPost2010Prop41ColorIndex
 90
       18
102
RTVSPost2010Prop41ColorRGB
 90
        0
102
RTVSPost2010PropOp41
 70
     1
102
RTVSPost2010Prop42
 90
       50
102
RTVSPost2010PropOp42
 70
     1
102
RTVSPost2010Prop43
 90
        3
102
RTVSPost2010PropOp43
 70
     1
102
RTVSPost2010Prop44ColorIndex
 90
        5
102
RTVSPost2010Prop44ColorRGB
 90
      255
102
RTVSPost2010PropOp44
 70
     1
102
RTVSPost2010Prop45
280
     0
102
RTVSPost2010PropOp45
 70
     1
102
RTVSPost2010Prop46
 90
       50
102
RTVSPost2010PropOp46
 70
     1
102
RTVSPost2010Prop47
 90
       50
102
RTVSPost2010PropOp47
 70
     1
102
RTVSPost2010Prop48
 90
       50
102
RTVSPost2010PropOp48
 70
     1
102
RTVSPost2010Prop49
280
     0
102
RTVSPost2010PropOp49
 70
     1
102
RTVSPost2010Prop50
 90
       50
102
RTVSPost2010PropOp50
 70
     1
102
RTVSPost2010Prop51ColorIndex
 90
      256
102
RTVSPost2010Prop51ColorRGB
 90
-16777216
102
RTVSPost2010PropOp51
 70
     0
102
RTVSPost2010Prop52
140
1.0
102
RTVSPost2010PropOp52
 70
     0
102
RTVSPost2010Prop53
 90
        2
102
RTVSPost2010PropOp53
 70
     1
102
RTVSPost2010Prop54
  1
strokes_ogs.tif
102
RTVSPost2010PropOp54
 70
     1
102
RTVSPost2010Prop55
280
     0
102
RTVSPost2010PropOp55
 70
     1
102
RTVSPost2010Prop56
140
1.0
102
RTVSPost2010PropOp56
 70
     1
102
RTVSPost2010Prop57
140
1.0
102
RTVSPost2010PropOp57
 70
     1
102
RTVSPropertyOp0
 70
     1
102
RTVSPropertyOp1
 70
     1
102
RTVSPropertyOp2
 70
     1
102
RTVSPropertyOp3
 70
     1
102
RTVSPropertyOp4
 70
     1
102
RTVSPropertyOp5
 70
     1
102
RTVSPropertyOp6
 70
     1
102
RTVSPropertyOp7
 70
     1
102
RTVSPropertyOp8
 70
     1
102
RTVSPropertyOp9
 70
     1
102
RTVSPropertyOp10
 70
     1
102
RTVSPropertyOp11
 70
     1
102
RTVSPropertyOp12
 70
     1
102
RTVSPropertyOp13
 70
     1
102
RTVSPropertyOp14
 70
     1
102
RTVSPropertyOp15
 70
     1
102
RTVSPropertyOp16
 70
     1
102
RTVSPropertyOp17
 70
     1
102
RTVSPropertyOp18
 70
     1
102
RTVSPropertyOp19
 70
     1
102
RTVSPropertyOp20
 70
     1
102
RTVSPropertyOp21
 70
     1
102
RTVSPropertyOp22
 70
     1
102
RTVSPropertyOp23
 70
     1
102
RTVSPropertyOp24
 70
     1
102
RTVSPropertyOp25
 70
     1
102
RTVSPropertyOp26
 70
     1
102
RTVSPropertyOp27
 70
     1
102
RTVSPropertyOp28
 70
     1
102
RTVSPropertyOp29
 70
     1
102
RTVSPropertyOp30
 70
     1
102
RTVSPropertyOp31
 70
     1
102
RTVSPropertyOp32
 70
     1
102
RTVSPropertyOp33
 70
     1
102
RTVSPropertyOp34
 70
     1
102
RTVSPropertyOp35
 70
     1
102
RTVSPropertyOp36
 70
     1
102
RTVSPropertyOp37
 70
     1
102
RTVSPropertyOp38
 70
     1
102
RTVSPropertyOp39
 70
     1
102
RTVSPropertyOp40
 70
     1
102
RTVSPropertyOp41
 70
     1
102
RTVSPropertyOp42
 70
     1
102
RTVSPropertyOp43
 70
     1
102
RTVSPropertyOp44
 70
     1
102
RTVSPropertyOp45
 70
     1
102
RTVSPropertyOp46
 70
     1
102
RTVSPropertyOp47
 70
     1
102
RTVSPropertyOp48
 70
     1
102
RTVSPropertyOp49
 70
     1
102
RTVSPropertyOp50
 70
     1
102
RTVSPropertyOp51
 70
     0
102
RTVSPropertyOp52
 70
     0
102
RTVSPropertyOp53
 70
     1
102
RTVSPropertyOp54
 70
     1
102
RTVSPropertyOp55
 70
     1
102
RTVSPropertyOp56
 70
     1
102
RTVSPropertyOp57
 70
     1
102
RTVSPropertyOp58
 70
     1
102
RTVSPropertyOp59
 70
     1
102
RTVSPropertyOp60
 70
     1
102
RTVSPropertyOp61
 70
     1
102
RTVSPropertyOp62
 70
     1
  0
XRECORD
  5
D65
102
{ACAD_REACTORS
330
D64
102
}
330
D64
100
AcDbXrecord
280
     1
102
RTVSPost2010Prop28
280
     0
102
RTVSPost2010PropOp28
 70
     1
102
RTVSPost2010Prop29
280
     1
102
RTVSPost2010PropOp29
 70
     1
102
RTVSPost2010Prop30
280
     1
102
RTVSPost2010PropOp30
 70
     1
102
RTVSPost2010Prop31
280
     0
102
RTVSPost2010PropOp31
 70
     1
102
RTVSPost2010Prop32
280
     0
102
RTVSPost2010PropOp32
 70
     1
102
RTVSPost2010Prop33
280
     0
102
RTVSPost2010PropOp33
 70
     1
102
RTVSPost2010Prop34
280
     0
102
RTVSPost2010PropOp34
 70
     1
102
RTVSPost2010Prop35
280
     0
102
RTVSPost2010PropOp35
 70
     1
102
RTVSPost2010Prop36
280
     0
102
RTVSPost2010PropOp36
 70
     1
102
RTVSPost2010Prop37
 90
       50
102
RTVSPost2010PropOp37
 70
     1
102
RTVSPost2010Prop38
140
0.0
102
RTVSPost2010PropOp38
 70
     1
102
RTVSPost2010Prop39
140
1.0
102
RTVSPost2010PropOp39
 70
     1
102
RTVSPost2010Prop40
 90
        0
102
RTVSPost2010PropOp40
 70
     1
102
RTVSPost2010Prop41ColorIndex
 90
       18
102
RTVSPost2010Prop41ColorRGB
 90
        0
102
RTVSPost2010PropOp41
 70
     1
102
RTVSPost2010Prop42
 90
       50
102
RTVSPost2010PropOp42
 70
     1
102
RTVSPost2010Prop43
 90
        3
102
RTVSPost2010PropOp43
 70
     1
102
RTVSPost2010Prop44ColorIndex
 90
        5
102
RTVSPost2010Prop44ColorRGB
 90
      255
102
RTVSPost2010PropOp44
 70
     1
102
RTVSPost2010Prop45
280
     0
102
RTVSPost2010PropOp45
 70
     1
102
RTVSPost2010Prop46
 90
       50
102
RTVSPost2010PropOp46
 70
     1
102
RTVSPost2010Prop47
 90
       50
102
RTVSPost2010PropOp47
 70
     1
102
RTVSPost2010Prop48
 90
       50
102
RTVSPost2010PropOp48
 70
     1
102
RTVSPost2010Prop49
280
     0
102
RTVSPost2010PropOp49
 70
     1
102
RTVSPost2010Prop50
 90
       50
102
RTVSPost2010PropOp50
 70
     1
102
RTVSPost2010Prop51ColorIndex
 90
      256
102
RTVSPost2010Prop51ColorRGB
 90
-16777216
102
RTVSPost2010PropOp51
 70
     0
102
RTVSPost2010Prop52
140
1.0
102
RTVSPost2010PropOp52
 70
     0
102
RTVSPost2010Prop53
 90
        2
102
RTVSPost2010PropOp53
 70
     1
102
RTVSPost2010Prop54
  1
strokes_ogs.tif
102
RTVSPost2010PropOp54
 70
     1
102
RTVSPost2010Prop55
280
     0
102
RTVSPost2010PropOp55
 70
     1
102
RTVSPost2010Prop56
140
1.0
102
RTVSPost2010PropOp56
 70
     1
102
RTVSPost2010Prop57
140
1.0
102
RTVSPost2010PropOp57
 70
     1
102
RTVSPropertyOp0
 70
     1
102
RTVSPropertyOp1
 70
     1
102
RTVSPropertyOp2
 70
     1
102
RTVSPropertyOp3
 70
     1
102
RTVSPropertyOp4
 70
     1
102
RTVSPropertyOp5
 70
     1
102
RTVSPropertyOp6
 70
     1
102
RTVSPropertyOp7
 70
     1
102
RTVSPropertyOp8
 70
     1
102
RTVSPropertyOp9
 70
     1
102
RTVSPropertyOp10
 70
     1
102
RTVSPropertyOp11
 70
     1
102
RTVSPropertyOp12
 70
     1
102
RTVSPropertyOp13
 70
     1
102
RTVSPropertyOp14
 70
     1
102
RTVSPropertyOp15
 70
     1
102
RTVSPropertyOp16
 70
     1
102
RTVSPropertyOp17
 70
     1
102
RTVSPropertyOp18
 70
     1
102
RTVSPropertyOp19
 70
     1
102
RTVSPropertyOp20
 70
     1
102
RTVSPropertyOp21
 70
     1
102
RTVSPropertyOp22
 70
     1
102
RTVSPropertyOp23
 70
     1
102
RTVSPropertyOp24
 70
     1
102
RTVSPropertyOp25
 70
     1
102
RTVSPropertyOp26
 70
     1
102
RTVSPropertyOp27
 70
     1
102
RTVSPropertyOp28
 70
     1
102
RTVSPropertyOp29
 70
     1
102
RTVSPropertyOp30
 70
     1
102
RTVSPropertyOp31
 70
     1
102
RTVSPropertyOp32
 70
     1
102
RTVSPropertyOp33
 70
     1
102
RTVSPropertyOp34
 70
     1
102
RTVSPropertyOp35
 70
     1
102
RTVSPropertyOp36
 70
     1
102
RTVSPropertyOp37
 70
     1
102
RTVSPropertyOp38
 70
     1
102
RTVSPropertyOp39
 70
     1
102
RTVSPropertyOp40
 70
     1
102
RTVSPropertyOp41
 70
     1
102
RTVSPropertyOp42
 70
     1
102
RTVSPropertyOp43
 70
     1
102
RTVSPropertyOp44
 70
     1
102
RTVSPropertyOp45
 70
     1
102
RTVSPropertyOp46
 70
     1
102
RTVSPropertyOp47
 70
     1
102
RTVSPropertyOp48
 70
     1
102
RTVSPropertyOp49
 70
     1
102
RTVSPropertyOp50
 70
     1
102
RTVSPropertyOp51
 70
     0
102
RTVSPropertyOp52
 70
     0
102
RTVSPropertyOp53
 70
     1
102
RTVSPropertyOp54
 70
     1
102
RTVSPropertyOp55
 70
     1
102
RTVSPropertyOp56
 70
     1
102
RTVSPropertyOp57
 70
     1
102
RTVSPropertyOp58
 70
     1
102
RTVSPropertyOp59
 70
     1
102
RTVSPropertyOp60
 70
     1
102
RTVSPropertyOp61
 70
     1
102
RTVSPropertyOp62
 70
     1
  0
XRECORD
  5
D67
102
{ACAD_REACTORS
330
D66
102
}
330
D66
100
AcDbXrecord
280
     1
102
RTVSPost2010Prop28
280
     0
102
RTVSPost2010PropOp28
 70
     1
102
RTVSPost2010Prop29
280
     1
102
RTVSPost2010PropOp29
 70
     1
102
RTVSPost2010Prop30
280
     1
102
RTVSPost2010PropOp30
 70
     1
102
RTVSPost2010Prop31
280
     0
102
RTVSPost2010PropOp31
 70
     1
102
RTVSPost2010Prop32
280
     0
102
RTVSPost2010PropOp32
 70
     1
102
RTVSPost2010Prop33
280
     0
102
RTVSPost2010PropOp33
 70
     1
102
RTVSPost2010Prop34
280
     0
102
RTVSPost2010PropOp34
 70
     1
102
RTVSPost2010Prop35
280
     0
102
RTVSPost2010PropOp35
 70
     1
102
RTVSPost2010Prop36
280
     0
102
RTVSPost2010PropOp36
 70
     1
102
RTVSPost2010Prop37
 90
       50
102
RTVSPost2010PropOp37
 70
     1
102
RTVSPost2010Prop38
140
0.0
102
RTVSPost2010PropOp38
 70
     1
102
RTVSPost2010Prop39
140
1.0
102
RTVSPost2010PropOp39
 70
     1
102
RTVSPost2010Prop40
 90
        0
102
RTVSPost2010PropOp40
 70
     1
102
RTVSPost2010Prop41ColorIndex
 90
       18
102
RTVSPost2010Prop41ColorRGB
 90
        0
102
RTVSPost2010PropOp41
 70
     1
102
RTVSPost2010Prop42
 90
       50
102
RTVSPost2010PropOp42
 70
     1
102
RTVSPost2010Prop43
 90
        3
102
RTVSPost2010PropOp43
 70
     1
102
RTVSPost2010Prop44ColorIndex
 90
        5
102
RTVSPost2010Prop44ColorRGB
 90
      255
102
RTVSPost2010PropOp44
 70
     1
102
RTVSPost2010Prop45
280
     0
102
RTVSPost2010PropOp45
 70
     1
102
RTVSPost2010Prop46
 90
       50
102
RTVSPost2010PropOp46
 70
     1
102
RTVSPost2010Prop47
 90
       50
102
RTVSPost2010PropOp47
 70
     1
102
RTVSPost2010Prop48
 90
       50
102
RTVSPost2010PropOp48
 70
     1
102
RTVSPost2010Prop49
280
     0
102
RTVSPost2010PropOp49
 70
     1
102
RTVSPost2010Prop50
 90
       50
102
RTVSPost2010PropOp50
 70
     1
102
RTVSPost2010Prop51ColorIndex
 90
      256
102
RTVSPost2010Prop51ColorRGB
 90
-16777216
102
RTVSPost2010PropOp51
 70
     0
102
RTVSPost2010Prop52
140
1.0
102
RTVSPost2010PropOp52
 70
     0
102
RTVSPost2010Prop53
 90
        2
102
RTVSPost2010PropOp53
 70
     1
102
RTVSPost2010Prop54
  1
strokes_ogs.tif
102
RTVSPost2010PropOp54
 70
     1
102
RTVSPost2010Prop55
280
     0
102
RTVSPost2010PropOp55
 70
     1
102
RTVSPost2010Prop56
140
1.0
102
RTVSPost2010PropOp56
 70
     1
102
RTVSPost2010Prop57
140
1.0
102
RTVSPost2010PropOp57
 70
     1
102
RTVSPropertyOp0
 70
     1
102
RTVSPropertyOp1
 70
     1
102
RTVSPropertyOp2
 70
     1
102
RTVSPropertyOp3
 70
     1
102
RTVSPropertyOp4
 70
     1
102
RTVSPropertyOp5
 70
     1
102
RTVSPropertyOp6
 70
     1
102
RTVSPropertyOp7
 70
     1
102
RTVSPropertyOp8
 70
     1
102
RTVSPropertyOp9
 70
     1
102
RTVSPropertyOp10
 70
     1
102
RTVSPropertyOp11
 70
     1
102
RTVSPropertyOp12
 70
     1
102
RTVSPropertyOp13
 70
     1
102
RTVSPropertyOp14
 70
     1
102
RTVSPropertyOp15
 70
     1
102
RTVSPropertyOp16
 70
     1
102
RTVSPropertyOp17
 70
     1
102
RTVSPropertyOp18
 70
     1
102
RTVSPropertyOp19
 70
     1
102
RTVSPropertyOp20
 70
     1
102
RTVSPropertyOp21
 70
     1
102
RTVSPropertyOp22
 70
     1
102
RTVSPropertyOp23
 70
     1
102
RTVSPropertyOp24
 70
     1
102
RTVSPropertyOp25
 70
     1
102
RTVSPropertyOp26
 70
     1
102
RTVSPropertyOp27
 70
     1
102
RTVSPropertyOp28
 70
     1
102
RTVSPropertyOp29
 70
     1
102
RTVSPropertyOp30
 70
     1
102
RTVSPropertyOp31
 70
     1
102
RTVSPropertyOp32
 70
     1
102
RTVSPropertyOp33
 70
     1
102
RTVSPropertyOp34
 70
     1
102
RTVSPropertyOp35
 70
     1
102
RTVSPropertyOp36
 70
     1
102
RTVSPropertyOp37
 70
     1
102
RTVSPropertyOp38
 70
     1
102
RTVSPropertyOp39
 70
     1
102
RTVSPropertyOp40
 70
     1
102
RTVSPropertyOp41
 70
     1
102
RTVSPropertyOp42
 70
     1
102
RTVSPropertyOp43
 70
     1
102
RTVSPropertyOp44
 70
     1
102
RTVSPropertyOp45
 70
     1
102
RTVSPropertyOp46
 70
     1
102
RTVSPropertyOp47
 70
     1
102
RTVSPropertyOp48
 70
     1
102
RTVSPropertyOp49
 70
     1
102
RTVSPropertyOp50
 70
     1
102
RTVSPropertyOp51
 70
     0
102
RTVSPropertyOp52
 70
     0
102
RTVSPropertyOp53
 70
     1
102
RTVSPropertyOp54
 70
     1
102
RTVSPropertyOp55
 70
     1
102
RTVSPropertyOp56
 70
     1
102
RTVSPropertyOp57
 70
     1
102
RTVSPropertyOp58
 70
     1
102
RTVSPropertyOp59
 70
     1
102
RTVSPropertyOp60
 70
     1
102
RTVSPropertyOp61
 70
     1
102
RTVSPropertyOp62
 70
     1
  0
XRECORD
  5
D55
102
{ACAD_REACTORS
330
D54
102
}
330
D54
100
AcDbXrecord
280
     1
102
RTVSPost2010Prop28
280
     0
102
RTVSPost2010PropOp28
 70
     1
102
RTVSPost2010Prop29
280
     1
102
RTVSPost2010PropOp29
 70
     1
102
RTVSPost2010Prop30
280
     1
102
RTVSPost2010PropOp30
 70
     1
102
RTVSPost2010Prop31
280
     0
102
RTVSPost2010PropOp31
 70
     1
102
RTVSPost2010Prop32
280
     0
102
RTVSPost2010PropOp32
 70
     1
102
RTVSPost2010Prop33
280
     0
102
RTVSPost2010PropOp33
 70
     1
102
RTVSPost2010Prop34
280
     0
102
RTVSPost2010PropOp34
 70
     1
102
RTVSPost2010Prop35
280
     0
102
RTVSPost2010PropOp35
 70
     1
102
RTVSPost2010Prop36
280
     0
102
RTVSPost2010PropOp36
 70
     1
102
RTVSPost2010Prop37
 90
       50
102
RTVSPost2010PropOp37
 70
     1
102
RTVSPost2010Prop38
140
0.0
102
RTVSPost2010PropOp38
 70
     1
102
RTVSPost2010Prop39
140
1.0
102
RTVSPost2010PropOp39
 70
     1
102
RTVSPost2010Prop40
 90
        0
102
RTVSPost2010PropOp40
 70
     1
102
RTVSPost2010Prop41ColorIndex
 90
       18
102
RTVSPost2010Prop41ColorRGB
 90
        0
102
RTVSPost2010PropOp41
 70
     1
102
RTVSPost2010Prop42
 90
       50
102
RTVSPost2010PropOp42
 70
     1
102
RTVSPost2010Prop43
 90
        3
102
RTVSPost2010PropOp43
 70
     1
102
RTVSPost2010Prop44ColorIndex
 90
        5
102
RTVSPost2010Prop44ColorRGB
 90
      255
102
RTVSPost2010PropOp44
 70
     1
102
RTVSPost2010Prop45
280
     0
102
RTVSPost2010PropOp45
 70
     1
102
RTVSPost2010Prop46
 90
       50
102
RTVSPost2010PropOp46
 70
     1
102
RTVSPost2010Prop47
 90
       50
102
RTVSPost2010PropOp47
 70
     1
102
RTVSPost2010Prop48
 90
       50
102
RTVSPost2010PropOp48
 70
     1
102
RTVSPost2010Prop49
280
     0
102
RTVSPost2010PropOp49
 70
     1
102
RTVSPost2010Prop50
 90
       50
102
RTVSPost2010PropOp50
 70
     1
102
RTVSPost2010Prop51ColorIndex
 90
      256
102
RTVSPost2010Prop51ColorRGB
 90
-16777216
102
RTVSPost2010PropOp51
 70
     0
102
RTVSPost2010Prop52
140
1.0
102
RTVSPost2010PropOp52
 70
     0
102
RTVSPost2010Prop53
 90
        2
102
RTVSPost2010PropOp53
 70
     1
102
RTVSPost2010Prop54
  1
strokes_ogs.tif
102
RTVSPost2010PropOp54
 70
     1
102
RTVSPost2010Prop55
280
     0
102
RTVSPost2010PropOp55
 70
     1
102
RTVSPost2010Prop56
140
1.0
102
RTVSPost2010PropOp56
 70
     1
102
RTVSPost2010Prop57
140
1.0
102
RTVSPost2010PropOp57
 70
     1
102
RTVSPropertyOp0
 70
     1
102
RTVSPropertyOp1
 70
     1
102
RTVSPropertyOp2
 70
     1
102
RTVSPropertyOp3
 70
     1
102
RTVSPropertyOp4
 70
     1
102
RTVSPropertyOp5
 70
     1
102
RTVSPropertyOp6
 70
     1
102
RTVSPropertyOp7
 70
     1
102
RTVSPropertyOp8
 70
     1
102
RTVSPropertyOp9
 70
     1
102
RTVSPropertyOp10
 70
     1
102
RTVSPropertyOp11
 70
     1
102
RTVSPropertyOp12
 70
     1
102
RTVSPropertyOp13
 70
     1
102
RTVSPropertyOp14
 70
     1
102
RTVSPropertyOp15
 70
     1
102
RTVSPropertyOp16
 70
     1
102
RTVSPropertyOp17
 70
     1
102
RTVSPropertyOp18
 70
     1
102
RTVSPropertyOp19
 70
     1
102
RTVSPropertyOp20
 70
     1
102
RTVSPropertyOp21
 70
     1
102
RTVSPropertyOp22
 70
     1
102
RTVSPropertyOp23
 70
     1
102
RTVSPropertyOp24
 70
     1
102
RTVSPropertyOp25
 70
     1
102
RTVSPropertyOp26
 70
     1
102
RTVSPropertyOp27
 70
     1
102
RTVSPropertyOp28
 70
     1
102
RTVSPropertyOp29
 70
     1
102
RTVSPropertyOp30
 70
     1
102
RTVSPropertyOp31
 70
     1
102
RTVSPropertyOp32
 70
     1
102
RTVSPropertyOp33
 70
     1
102
RTVSPropertyOp34
 70
     1
102
RTVSPropertyOp35
 70
     1
102
RTVSPropertyOp36
 70
     1
102
RTVSPropertyOp37
 70
     1
102
RTVSPropertyOp38
 70
     1
102
RTVSPropertyOp39
 70
     1
102
RTVSPropertyOp40
 70
     1
102
RTVSPropertyOp41
 70
     1
102
RTVSPropertyOp42
 70
     1
102
RTVSPropertyOp43
 70
     1
102
RTVSPropertyOp44
 70
     1
102
RTVSPropertyOp45
 70
     1
102
RTVSPropertyOp46
 70
     1
102
RTVSPropertyOp47
 70
     1
102
RTVSPropertyOp48
 70
     1
102
RTVSPropertyOp49
 70
     1
102
RTVSPropertyOp50
 70
     1
102
RTVSPropertyOp51
 70
     0
102
RTVSPropertyOp52
 70
     0
102
RTVSPropertyOp53
 70
     1
102
RTVSPropertyOp54
 70
     1
102
RTVSPropertyOp55
 70
     1
102
RTVSPropertyOp56
 70
     1
102
RTVSPropertyOp57
 70
     1
102
RTVSPropertyOp58
 70
     1
102
RTVSPropertyOp59
 70
     1
102
RTVSPropertyOp60
 70
     1
102
RTVSPropertyOp61
 70
     1
102
RTVSPropertyOp62
 70
     1
  0
XRECORD
  5
D49
102
{ACAD_REACTORS
330
D48
102
}
330
D48
100
AcDbXrecord
280
     1
102
RTVSPost2010Prop28
280
     0
102
RTVSPost2010PropOp28
 70
     1
102
RTVSPost2010Prop29
280
     1
102
RTVSPost2010PropOp29
 70
     1
102
RTVSPost2010Prop30
280
     1
102
RTVSPost2010PropOp30
 70
     1
102
RTVSPost2010Prop31
280
     0
102
RTVSPost2010PropOp31
 70
     1
102
RTVSPost2010Prop32
280
     0
102
RTVSPost2010PropOp32
 70
     1
102
RTVSPost2010Prop33
280
     0
102
RTVSPost2010PropOp33
 70
     1
102
RTVSPost2010Prop34
280
     0
102
RTVSPost2010PropOp34
 70
     1
102
RTVSPost2010Prop35
280
     0
102
RTVSPost2010PropOp35
 70
     1
102
RTVSPost2010Prop36
280
     0
102
RTVSPost2010PropOp36
 70
     1
102
RTVSPost2010Prop37
 90
       50
102
RTVSPost2010PropOp37
 70
     1
102
RTVSPost2010Prop38
140
0.0
102
RTVSPost2010PropOp38
 70
     1
102
RTVSPost2010Prop39
140
1.0
102
RTVSPost2010PropOp39
 70
     1
102
RTVSPost2010Prop40
 90
        0
102
RTVSPost2010PropOp40
 70
     1
102
RTVSPost2010Prop41ColorIndex
 90
       18
102
RTVSPost2010Prop41ColorRGB
 90
        0
102
RTVSPost2010PropOp41
 70
     1
102
RTVSPost2010Prop42
 90
       50
102
RTVSPost2010PropOp42
 70
     1
102
RTVSPost2010Prop43
 90
        3
102
RTVSPost2010PropOp43
 70
     1
102
RTVSPost2010Prop44ColorIndex
 90
        5
102
RTVSPost2010Prop44ColorRGB
 90
      255
102
RTVSPost2010PropOp44
 70
     1
102
RTVSPost2010Prop45
280
     0
102
RTVSPost2010PropOp45
 70
     1
102
RTVSPost2010Prop46
 90
       50
102
RTVSPost2010PropOp46
 70
     1
102
RTVSPost2010Prop47
 90
       50
102
RTVSPost2010PropOp47
 70
     1
102
RTVSPost2010Prop48
 90
       50
102
RTVSPost2010PropOp48
 70
     1
102
RTVSPost2010Prop49
280
     0
102
RTVSPost2010PropOp49
 70
     1
102
RTVSPost2010Prop50
 90
       50
102
RTVSPost2010PropOp50
 70
     1
102
RTVSPost2010Prop51ColorIndex
 90
      256
102
RTVSPost2010Prop51ColorRGB
 90
-16777216
102
RTVSPost2010PropOp51
 70
     0
102
RTVSPost2010Prop52
140
1.0
102
RTVSPost2010PropOp52
 70
     0
102
RTVSPost2010Prop53
 90
        2
102
RTVSPost2010PropOp53
 70
     1
102
RTVSPost2010Prop54
  1
strokes_ogs.tif
102
RTVSPost2010PropOp54
 70
     1
102
RTVSPost2010Prop55
280
     0
102
RTVSPost2010PropOp55
 70
     1
102
RTVSPost2010Prop56
140
1.0
102
RTVSPost2010PropOp56
 70
     1
102
RTVSPost2010Prop57
140
1.0
102
RTVSPost2010PropOp57
 70
     1
102
RTVSPropertyOp0
 70
     1
102
RTVSPropertyOp1
 70
     1
102
RTVSPropertyOp2
 70
     1
102
RTVSPropertyOp3
 70
     1
102
RTVSPropertyOp4
 70
     1
102
RTVSPropertyOp5
 70
     1
102
RTVSPropertyOp6
 70
     1
102
RTVSPropertyOp7
 70
     1
102
RTVSPropertyOp8
 70
     1
102
RTVSPropertyOp9
 70
     1
102
RTVSPropertyOp10
 70
     1
102
RTVSPropertyOp11
 70
     1
102
RTVSPropertyOp12
 70
     1
102
RTVSPropertyOp13
 70
     1
102
RTVSPropertyOp14
 70
     1
102
RTVSPropertyOp15
 70
     1
102
RTVSPropertyOp16
 70
     1
102
RTVSPropertyOp17
 70
     1
102
RTVSPropertyOp18
 70
     1
102
RTVSPropertyOp19
 70
     1
102
RTVSPropertyOp20
 70
     1
102
RTVSPropertyOp21
 70
     1
102
RTVSPropertyOp22
 70
     1
102
RTVSPropertyOp23
 70
     1
102
RTVSPropertyOp24
 70
     1
102
RTVSPropertyOp25
 70
     1
102
RTVSPropertyOp26
 70
     1
102
RTVSPropertyOp27
 70
     1
102
RTVSPropertyOp28
 70
     1
102
RTVSPropertyOp29
 70
     1
102
RTVSPropertyOp30
 70
     1
102
RTVSPropertyOp31
 70
     1
102
RTVSPropertyOp32
 70
     1
102
RTVSPropertyOp33
 70
     1
102
RTVSPropertyOp34
 70
     1
102
RTVSPropertyOp35
 70
     1
102
RTVSPropertyOp36
 70
     1
102
RTVSPropertyOp37
 70
     1
102
RTVSPropertyOp38
 70
     1
102
RTVSPropertyOp39
 70
     1
102
RTVSPropertyOp40
 70
     1
102
RTVSPropertyOp41
 70
     1
102
RTVSPropertyOp42
 70
     1
102
RTVSPropertyOp43
 70
     1
102
RTVSPropertyOp44
 70
     1
102
RTVSPropertyOp45
 70
     1
102
RTVSPropertyOp46
 70
     1
102
RTVSPropertyOp47
 70
     1
102
RTVSPropertyOp48
 70
     1
102
RTVSPropertyOp49
 70
     1
102
RTVSPropertyOp50
 70
     1
102
RTVSPropertyOp51
 70
     0
102
RTVSPropertyOp52
 70
     0
102
RTVSPropertyOp53
 70
     1
102
RTVSPropertyOp54
 70
     1
102
RTVSPropertyOp55
 70
     1
102
RTVSPropertyOp56
 70
     1
102
RTVSPropertyOp57
 70
     1
102
RTVSPropertyOp58
 70
     1
102
RTVSPropertyOp59
 70
     1
102
RTVSPropertyOp60
 70
     1
102
RTVSPropertyOp61
 70
     1
102
RTVSPropertyOp62
 70
     1
  0
XRECORD
  5
D69
102
{ACAD_REACTORS
330
D68
102
}
330
D68
100
AcDbXrecord
280
     1
102
RTVSPost2010Prop28
280
     0
102
RTVSPost2010PropOp28
 70
     1
102
RTVSPost2010Prop29
280
     1
102
RTVSPost2010PropOp29
 70
     1
102
RTVSPost2010Prop30
280
     1
102
RTVSPost2010PropOp30
 70
     1
102
RTVSPost2010Prop31
280
     0
102
RTVSPost2010PropOp31
 70
     1
102
RTVSPost2010Prop32
280
     0
102
RTVSPost2010PropOp32
 70
     1
102
RTVSPost2010Prop33
280
     0
102
RTVSPost2010PropOp33
 70
     1
102
RTVSPost2010Prop34
280
     0
102
RTVSPost2010PropOp34
 70
     1
102
RTVSPost2010Prop35
280
     0
102
RTVSPost2010PropOp35
 70
     1
102
RTVSPost2010Prop36
280
     0
102
RTVSPost2010PropOp36
 70
     1
102
RTVSPost2010Prop37
 90
       50
102
RTVSPost2010PropOp37
 70
     1
102
RTVSPost2010Prop38
140
0.0
102
RTVSPost2010PropOp38
 70
     1
102
RTVSPost2010Prop39
140
1.0
102
RTVSPost2010PropOp39
 70
     1
102
RTVSPost2010Prop40
 90
        0
102
RTVSPost2010PropOp40
 70
     1
102
RTVSPost2010Prop41ColorIndex
 90
       18
102
RTVSPost2010Prop41ColorRGB
 90
        0
102
RTVSPost2010PropOp41
 70
     1
102
RTVSPost2010Prop42
 90
       50
102
RTVSPost2010PropOp42
 70
     1
102
RTVSPost2010Prop43
 90
        3
102
RTVSPost2010PropOp43
 70
     1
102
RTVSPost2010Prop44ColorIndex
 90
        5
102
RTVSPost2010Prop44ColorRGB
 90
      255
102
RTVSPost2010PropOp44
 70
     1
102
RTVSPost2010Prop45
280
     0
102
RTVSPost2010PropOp45
 70
     1
102
RTVSPost2010Prop46
 90
       50
102
RTVSPost2010PropOp46
 70
     1
102
RTVSPost2010Prop47
 90
       50
102
RTVSPost2010PropOp47
 70
     1
102
RTVSPost2010Prop48
 90
       50
102
RTVSPost2010PropOp48
 70
     1
102
RTVSPost2010Prop49
280
     0
102
RTVSPost2010PropOp49
 70
     1
102
RTVSPost2010Prop50
 90
       50
102
RTVSPost2010PropOp50
 70
     1
102
RTVSPost2010Prop51ColorIndex
 90
      256
102
RTVSPost2010Prop51ColorRGB
 90
-16777216
102
RTVSPost2010PropOp51
 70
     0
102
RTVSPost2010Prop52
140
1.0
102
RTVSPost2010PropOp52
 70
     0
102
RTVSPost2010Prop53
 90
        2
102
RTVSPost2010PropOp53
 70
     1
102
RTVSPost2010Prop54
  1
strokes_ogs.tif
102
RTVSPost2010PropOp54
 70
     1
102
RTVSPost2010Prop55
280
     0
102
RTVSPost2010PropOp55
 70
     1
102
RTVSPost2010Prop56
140
1.0
102
RTVSPost2010PropOp56
 70
     1
102
RTVSPost2010Prop57
140
1.0
102
RTVSPost2010PropOp57
 70
     1
102
RTVSPropertyOp0
 70
     1
102
RTVSPropertyOp1
 70
     1
102
RTVSPropertyOp2
 70
     1
102
RTVSPropertyOp3
 70
     1
102
RTVSPropertyOp4
 70
     1
102
RTVSPropertyOp5
 70
     1
102
RTVSPropertyOp6
 70
     1
102
RTVSPropertyOp7
 70
     1
102
RTVSPropertyOp8
 70
     1
102
RTVSPropertyOp9
 70
     1
102
RTVSPropertyOp10
 70
     1
102
RTVSPropertyOp11
 70
     1
102
RTVSPropertyOp12
 70
     1
102
RTVSPropertyOp13
 70
     1
102
RTVSPropertyOp14
 70
     1
102
RTVSPropertyOp15
 70
     1
102
RTVSPropertyOp16
 70
     1
102
RTVSPropertyOp17
 70
     1
102
RTVSPropertyOp18
 70
     1
102
RTVSPropertyOp19
 70
     1
102
RTVSPropertyOp20
 70
     1
102
RTVSPropertyOp21
 70
     1
102
RTVSPropertyOp22
 70
     1
102
RTVSPropertyOp23
 70
     1
102
RTVSPropertyOp24
 70
     1
102
RTVSPropertyOp25
 70
     1
102
RTVSPropertyOp26
 70
     1
102
RTVSPropertyOp27
 70
     1
102
RTVSPropertyOp28
 70
     1
102
RTVSPropertyOp29
 70
     1
102
RTVSPropertyOp30
 70
     1
102
RTVSPropertyOp31
 70
     1
102
RTVSPropertyOp32
 70
     1
102
RTVSPropertyOp33
 70
     1
102
RTVSPropertyOp34
 70
     1
102
RTVSPropertyOp35
 70
     1
102
RTVSPropertyOp36
 70
     1
102
RTVSPropertyOp37
 70
     1
102
RTVSPropertyOp38
 70
     1
102
RTVSPropertyOp39
 70
     1
102
RTVSPropertyOp40
 70
     1
102
RTVSPropertyOp41
 70
     1
102
RTVSPropertyOp42
 70
     1
102
RTVSPropertyOp43
 70
     1
102
RTVSPropertyOp44
 70
     1
102
RTVSPropertyOp45
 70
     1
102
RTVSPropertyOp46
 70
     1
102
RTVSPropertyOp47
 70
     1
102
RTVSPropertyOp48
 70
     1
102
RTVSPropertyOp49
 70
     1
102
RTVSPropertyOp50
 70
     1
102
RTVSPropertyOp51
 70
     0
102
RTVSPropertyOp52
 70
     0
102
RTVSPropertyOp53
 70
     1
102
RTVSPropertyOp54
 70
     1
102
RTVSPropertyOp55
 70
     1
102
RTVSPropertyOp56
 70
     1
102
RTVSPropertyOp57
 70
     1
102
RTVSPropertyOp58
 70
     1
102
RTVSPropertyOp59
 70
     1
102
RTVSPropertyOp60
 70
     1
102
RTVSPropertyOp61
 70
     1
102
RTVSPropertyOp62
 70
     1
  0
ENDSEC
  0
EOF
