  0
SECTION
  2
HEADER
  9
$ACADVER
  1
AC1015
  9
$ACADMAINTVER
 70
    18
  9
$DWGCODEPAGE
  3
ANSI_1252
  9
$INSBASE
 10
0.0
 20
0.0
 30
0.0
  9
$EXTMIN
 10
-181.7633048977741
 20
-543.2658233051954
 30
-0.0015258207003583
  9
$EXTMAX
 10
184.845886934602
 20
248.4954992922669
 30
0.0000000349246037
  9
$LIMMIN
 10
0.0
 20
0.0
  9
$LIMMAX
 10
420.0
 20
297.0
  9
$ORTHOMODE
 70
     0
  9
$REGENMODE
 70
     1
  9
$FILLMODE
 70
     1
  9
$QTEXTMODE
 70
     0
  9
$MIRRTEXT
 70
     0
  9
$LTSCALE
 40
1.0
  9
$ATTMODE
 70
     1
  9
$TEXTSIZE
 40
2.5
  9
$TRACEWID
 40
1.0
  9
$TEXTSTYLE
  7
Standard
  9
$CLAYER
  8
0
  9
$CELTYPE
  6
ByLayer
  9
$CECOLOR
 62
   256
  9
$CELTSCALE
 40
1.0
  9
$DISPSILH
 70
     0
  9
$DIMSCALE
 40
1.0
  9
$DIMASZ
 40
2.5
  9
$DIMEXO
 40
0.625
  9
$DIMDLI
 40
3.75
  9
$DIMRND
 40
0.0
  9
$DIMDLE
 40
0.0
  9
$DIMEXE
 40
1.25
  9
$DIMTP
 40
0.0
  9
$DIMTM
 40
0.0
  9
$DIMTXT
 40
2.5
  9
$DIMCEN
 40
2.5
  9
$DIMTSZ
 40
0.0
  9
$DIMTOL
 70
     0
  9
$DIMLIM
 70
     0
  9
$DIMTIH
 70
     0
  9
$DIMTOH
 70
     0
  9
$DIMSE1
 70
     0
  9
$DIMSE2
 70
     0
  9
$DIMTAD
 70
     1
  9
$DIMZIN
 70
     8
  9
$DIMBLK
  1

  9
$DIMASO
 70
     1
  9
$DIMSHO
 70
     1
  9
$DIMPOST
  1

  9
$DIMAPOST
  1

  9
$DIMALT
 70
     0
  9
$DIMALTD
 70
     3
  9
$DIMALTF
 40
0.03937007874016
  9
$DIMLFAC
 40
1.0
  9
$DIMTOFL
 70
     1
  9
$DIMTVP
 40
0.0
  9
$DIMTIX
 70
     0
  9
$DIMSOXD
 70
     0
  9
$DIMSAH
 70
     0
  9
$DIMBLK1
  1

  9
$DIMBLK2
  1

  9
$DIMSTYLE
  2
ISO-25
  9
$DIMCLRD
 70
     0
  9
$DIMCLRE
 70
     0
  9
$DIMCLRT
 70
     0
  9
$DIMTFAC
 40
1.0
  9
$DIMGAP
 40
0.625
  9
$DIMJUST
 70
     0
  9
$DIMSD1
 70
     0
  9
$DIMSD2
 70
     0
  9
$DIMTOLJ
 70
     0
  9
$DIMTZIN
 70
     8
  9
$DIMALTZ
 70
     0
  9
$DIMALTTZ
 70
     0
  9
$DIMUPT
 70
     0
  9
$DIMDEC
 70
     2
  9
$DIMTDEC
 70
     2
  9
$DIMALTU
 70
     2
  9
$DIMALTTD
 70
     3
  9
$DIMTXSTY
  7
Standard
  9
$DIMAUNIT
 70
     0
  9
$DIMADEC
 70
     0
  9
$DIMALTRND
 40
0.0
  9
$DIMAZIN
 70
     0
  9
$DIMDSEP
 70
    44
  9
$DIMATFIT
 70
     3
  9
$DIMFRAC
 70
     0
  9
$DIMLDRBLK
  1

  9
$DIMLUNIT
 70
     2
  9
$DIMLWD
 70
    -2
  9
$DIMLWE
 70
    -2
  9
$DIMTMOVE
 70
     0
  9
$LUNITS
 70
     2
  9
$LUPREC
 70
     4
  9
$SKETCHINC
 40
1.0
  9
$FILLETRAD
 40
0.0
  9
$AUNITS
 70
     0
  9
$AUPREC
 70
     0
  9
$MENU
  1
.
  9
$ELEVATION
 40
0.0
  9
$PELEVATION
 40
0.0
  9
$THICKNESS
 40
0.0
  9
$LIMCHECK
 70
     0
  9
$CHAMFERA
 40
0.0
  9
$CHAMFERB
 40
0.0
  9
$CHAMFERC
 40
0.0
  9
$CHAMFERD
 40
0.0
  9
$SKPOLY
 70
     0
  9
$TDCREATE
 40
2460286.622500000
  9
$TDUCREATE
 40
2460286.330833334
  9
$TDUPDATE
 40
2460286.637962963
  9
$TDUUPDATE
 40
2460286.346296296
  9
$TDINDWG
 40
0.0048148148
  9
$TDUSRTIMER
 40
0.0048148148
  9
$USRTIMER
 70
     1
  9
$ANGBASE
 50
0.0
  9
$ANGDIR
 70
     0
  9
$PDMODE
 70
     0
  9
$PDSIZE
 40
0.0
  9
$PLINEWID
 40
0.0
  9
$SPLFRAME
 70
     0
  9
$SPLINETYPE
 70
     6
  9
$SPLINESEGS
 70
     8
  9
$HANDSEED
  5
BF52
  9
$SURFTAB1
 70
     6
  9
$SURFTAB2
 70
     6
  9
$SURFTYPE
 70
     6
  9
$SURFU
 70
     6
  9
$SURFV
 70
     6
  9
$UCSBASE
  2

  9
$UCSNAME
  2

  9
$UCSORG
 10
0.0
 20
0.0
 30
0.0
  9
$UCSXDIR
 10
1.0
 20
0.0
 30
0.0
  9
$UCSYDIR
 10
0.0
 20
1.0
 30
0.0
  9
$UCSORTHOREF
  2

  9
$UCSORTHOVIEW
 70
     0
  9
$UCSORGTOP
 10
0.0
 20
0.0
 30
0.0
  9
$UCSORGBOTTOM
 10
0.0
 20
0.0
 30
0.0
  9
$UCSORGLEFT
 10
0.0
 20
0.0
 30
0.0
  9
$UCSORGRIGHT
 10
0.0
 20
0.0
 30
0.0
  9
$UCSORGFRONT
 10
0.0
 20
0.0
 30
0.0
  9
$UCSORGBACK
 10
0.0
 20
0.0
 30
0.0
  9
$PUCSBASE
  2

  9
$PUCSNAME
  2

  9
$PUCSORG
 10
0.0
 20
0.0
 30
0.0
  9
$PUCSXDIR
 10
1.0
 20
0.0
 30
0.0
  9
$PUCSYDIR
 10
0.0
 20
1.0
 30
0.0
  9
$PUCSORTHOREF
  2

  9
$PUCSORTHOVIEW
 70
     0
  9
$PUCSORGTOP
 10
0.0
 20
0.0
 30
0.0
  9
$PUCSORGBOTTOM
 10
0.0
 20
0.0
 30
0.0
  9
$PUCSORGLEFT
 10
0.0
 20
0.0
 30
0.0
  9
$PUCSORGRIGHT
 10
0.0
 20
0.0
 30
0.0
  9
$PUCSORGFRONT
 10
0.0
 20
0.0
 30
0.0
  9
$PUCSORGBACK
 10
0.0
 20
0.0
 30
0.0
  9
$USERI1
 70
     0
  9
$USERI2
 70
     0
  9
$USERI3
 70
     0
  9
$USERI4
 70
     0
  9
$USERI5
 70
     0
  9
$USERR1
 40
0.0
  9
$USERR2
 40
0.0
  9
$USERR3
 40
0.0
  9
$USERR4
 40
0.0
  9
$USERR5
 40
0.0
  9
$WORLDVIEW
 70
     1
  9
$SHADEDGE
 70
     3
  9
$SHADEDIF
 70
    70
  9
$TILEMODE
 70
     1
  9
$MAXACTVP
 70
    48
  9
$PINSBASE
 10
0.0
 20
0.0
 30
0.0
  9
$PLIMCHECK
 70
     0
  9
$PEXTMIN
 10
0.0
 20
0.0
 30
0.0
  9
$PEXTMAX
 10
0.0
 20
0.0
 30
0.0
  9
$PLIMMIN
 10
0.0
 20
0.0
  9
$PLIMMAX
 10
12.0
 20
9.0
  9
$UNITMODE
 70
     0
  9
$VISRETAIN
 70
     1
  9
$PLINEGEN
 70
     0
  9
$PSLTSCALE
 70
     1
  9
$TREEDEPTH
 70
  3020
  9
$CMLSTYLE
  2
Standard
  9
$CMLJUST
 70
     0
  9
$CMLSCALE
 40
20.0
  9
$PROXYGRAPHICS
 70
     1
  9
$MEASUREMENT
 70
     1
  9
$CELWEIGHT
370
    -1
  9
$ENDCAPS
280
     0
  9
$JOINSTYLE
280
     0
  9
$LWDISPLAY
290
     0
  9
$INSUNITS
 70
     4
  9
$HYPERLINKBASE
  1

  9
$STYLESHEET
  1

  9
$XEDIT
290
     1
  9
$CEPSNTYPE
380
     0
  9
$PSTYLEMODE
290
     1
  9
$FINGERPRINTGUID
  2
{F076C30E-3F10-754B-AD36-B589FE558AAC}
  9
$VERSIONGUID
  2
{CE123DC8-042A-9342-A8C3-7EBE19B9C40C}
  9
$EXTNAMES
290
     1
  9
$PSVPSCALE
 40
0.0
  9
$OLESTARTUP
290
     0
  0
ENDSEC
  0
SECTION
  2
CLASSES
  0
CLASS
  1
ACDBDICTIONARYWDFLT
  2
AcDbDictionaryWithDefault
  3
ObjectDBX Classes
 90
        0
280
     0
281
     0
  0
CLASS
  1
ACDBPLACEHOLDER
  2
AcDbPlaceHolder
  3
ObjectDBX Classes
 90
        0
280
     0
281
     0
  0
CLASS
  1
LAYOUT
  2
AcDbLayout
  3
ObjectDBX Classes
 90
        0
280
     0
281
     0
  0
CLASS
  1
DICTIONARYVAR
  2
AcDbDictionaryVar
  3
ObjectDBX Classes
 90
        0
280
     0
281
     0
  0
CLASS
  1
TABLESTYLE
  2
AcDbTableStyle
  3
ObjectDBX Classes
 90
     4095
280
     0
281
     0
  0
CLASS
  1
MATERIAL
  2
AcDbMaterial
  3
ObjectDBX Classes
 90
     1153
280
     0
281
     0
  0
CLASS
  1
VISUALSTYLE
  2
AcDbVisualStyle
  3
ObjectDBX Classes
 90
     4095
280
     0
281
     0
  0
CLASS
  1
SCALE
  2
AcDbScale
  3
ObjectDBX Classes
 90
     1153
280
     0
281
     0
  0
CLASS
  1
MLEADERSTYLE
  2
AcDbMLeaderStyle
  3
ACDB_MLEADERSTYLE_CLASS
 90
     4095
280
     0
281
     0
  0
CLASS
  1
CELLSTYLEMAP
  2
AcDbCellStyleMap
  3
ObjectDBX Classes
 90
     1152
280
     0
281
     0
  0
CLASS
  1
EXACXREFPANELOBJECT
  2
ExAcXREFPanelObject
  3
EXAC_ESW
 90
    33793
280
     0
281
     0
  0
CLASS
  1
NPOCOLLECTION
  2
AcDbImpNonPersistentObjectsCollection
  3
ObjectDBX Classes
 90
    33921
280
     0
281
     0
  0
CLASS
  1
LAYER_INDEX
  2
AcDbLayerIndex
  3
ObjectDBX Classes
 90
    32768
280
     0
281
     0
  0
CLASS
  1
SPATIAL_INDEX
  2
AcDbSpatialIndex
  3
ObjectDBX Classes
 90
    32768
280
     0
281
     0
  0
CLASS
  1
IDBUFFER
  2
AcDbIdBuffer
  3
ObjectDBX Classes
 90
    32768
280
     0
281
     0
  0
CLASS
  1
ACDBSECTIONVIEWSTYLE
  2
AcDbSectionViewStyle
  3
ObjectDBX Classes
 90
     1025
280
     0
281
     0
  0
CLASS
  1
ACDBDETAILVIEWSTYLE
  2
AcDbDetailViewStyle
  3
ObjectDBX Classes
 90
     1025
280
     0
281
     0
  0
CLASS
  1
XRECORD
  2
AcDbXrecord
  3
ObjectDBX Classes
 90
        0
280
     0
281
     0
  0
ENDSEC
  0
SECTION
  2
TABLES
  0
TABLE
  2
VPORT
  5
8
102
{ACAD_XDICTIONARY
360
BE60
102
}
330
0
100
AcDbSymbolTable
 70
     1
  0
VPORT
  5
EA
330
8
100
AcDbSymbolTableRecord
100
AcDbViewportTableRecord
  2
*Active
 70
     0
 10
0.0
 20
0.0
 11
1.0
 21
1.0
 12
1.541291018413971
 22
-147.3851620064642
 13
0.0
 23
0.0
 14
10.0
 24
10.0
 15
10.0
 25
10.0
 16
0.0
 26
0.0
 36
1.0
 17
0.0
 27
0.0
 37
0.0
 40
841.9664145458915
 41
0.9846153846153846
 42
50.0
 43
0.0
 44
0.0
 50
0.0
 51
0.0
 71
     0
 72
  1000
 73
     1
 74
     3
 75
     0
 76
     1
 77
     0
 78
     0
281
     0
 65
     1
110
0.0
120
0.0
130
0.0
111
1.0
121
0.0
131
0.0
112
0.0
122
1.0
132
0.0
 79
     0
146
0.0
1001
ACAD_NAV_VCDISPLAY
1070
     3
  0
ENDTAB
  0
TABLE
  2
LTYPE
  5
5
330
0
100
AcDbSymbolTable
 70
     1
  0
LTYPE
  5
14
330
5
100
AcDbSymbolTableRecord
100
AcDbLinetypeTableRecord
  2
ByBlock
 70
     0
  3

 72
    65
 73
     0
 40
0.0
  0
LTYPE
  5
15
330
5
100
AcDbSymbolTableRecord
100
AcDbLinetypeTableRecord
  2
ByLayer
 70
     0
  3

 72
    65
 73
     0
 40
0.0
  0
LTYPE
  5
16
330
5
100
AcDbSymbolTableRecord
100
AcDbLinetypeTableRecord
  2
Continuous
 70
     0
  3
Solid line
 72
    65
 73
     0
 40
0.0
  0
ENDTAB
  0
TABLE
  2
LAYER
  5
2
102
{ACAD_XDICTIONARY
360
1FF
102
}
330
0
100
AcDbSymbolTable
 70
     1
  0
LAYER
  5
10
102
{ACAD_XDICTIONARY
360
13C
102
}
330
2
100
AcDbSymbolTableRecord
100
AcDbLayerTableRecord
  2
0
 70
     0
 62
     7
  6
Continuous
370
    -3
390
F
  0
ENDTAB
  0
TABLE
  2
STYLE
  5
3
330
0
100
AcDbSymbolTable
 70
     1
  0
STYLE
  5
11
330
3
100
AcDbSymbolTableRecord
100
AcDbTextStyleTableRecord
  2
Standard
 70
     0
 40
0.0
 41
1.0
 50
0.0
 71
     0
 42
2.5
  3
arial.ttf
  4

1001
ACAD
1000
Arial
1071
       34
  0
ENDTAB
  0
TABLE
  2
VIEW
  5
6
330
0
100
AcDbSymbolTable
 70
     0
  0
ENDTAB
  0
TABLE
  2
UCS
  5
7
330
0
100
AcDbSymbolTable
 70
     0
  0
ENDTAB
  0
TABLE
  2
APPID
  5
9
330
0
100
AcDbSymbolTable
 70
     8
  0
APPID
  5
12
330
9
100
AcDbSymbolTableRecord
100
AcDbRegAppTableRecord
  2
ACAD
 70
     0
  0
APPID
  5
9E
330
9
100
AcDbSymbolTableRecord
100
AcDbRegAppTableRecord
  2
ACAD_PSEXT
 70
     0
  0
APPID
  5
133
330
9
100
AcDbSymbolTableRecord
100
AcDbRegAppTableRecord
  2
AcadAnnoPO
 70
     0
  0
APPID
  5
134
330
9
100
AcDbSymbolTableRecord
100
AcDbRegAppTableRecord
  2
AcadAnnotative
 70
     0
  0
APPID
  5
135
330
9
100
AcDbSymbolTableRecord
100
AcDbRegAppTableRecord
  2
ACAD_DSTYLE_DIMJAG
 70
     0
  0
APPID
  5
136
330
9
100
AcDbSymbolTableRecord
100
AcDbRegAppTableRecord
  2
ACAD_DSTYLE_DIMTALN
 70
     0
  0
APPID
  5
165
330
9
100
AcDbSymbolTableRecord
100
AcDbRegAppTableRecord
  2
ACAD_MLEADERVER
 70
     0
  0
APPID
  5
217
330
9
100
AcDbSymbolTableRecord
100
AcDbRegAppTableRecord
  2
ACAD_NAV_VCDISPLAY
 70
     0
  0
ENDTAB
  0
TABLE
  2
DIMSTYLE
  5
A
330
0
100
AcDbSymbolTable
 70
     1
100
AcDbDimStyleTable
 71
     0
  0
DIMSTYLE
105
27
330
A
100
AcDbSymbolTableRecord
100
AcDbDimStyleTableRecord
  2
ISO-25
 70
     0
 41
2.5
 42
0.625
 43
3.75
 44
1.25
 73
     0
 74
     0
 77
     1
 78
     8
140
2.5
141
2.5
143
0.03937007874016
147
0.625
171
     3
172
     1
271
     2
272
     2
274
     3
278
    44
283
     0
284
     8
340
11
  0
ENDTAB
  0
TABLE
  2
BLOCK_RECORD
  5
1
330
0
100
AcDbSymbolTable
 70
     7
  0
BLOCK_RECORD
  5
1F
102
{ACAD_XDICTIONARY
360
1CE
102
}
330
1
100
AcDbSymbolTableRecord
100
AcDbBlockTableRecord
  2
*Model_Space
340
22
  0
BLOCK_RECORD
  5
D2
102
{ACAD_XDICTIONARY
360
BE13
102
}
330
1
100
AcDbSymbolTableRecord
100
AcDbBlockTableRecord
  2
*Paper_Space
340
D3
  0
BLOCK_RECORD
  5
D6
102
{ACAD_XDICTIONARY
360
BE15
102
}
330
1
100
AcDbSymbolTableRecord
100
AcDbBlockTableRecord
  2
*Paper_Space0
340
D7
  0
BLOCK_RECORD
  5
BC31
330
1
100
AcDbSymbolTableRecord
100
AcDbBlockTableRecord
  2
PBWS70-Front
340
0
102
{BLKREFS
331
BE09
102
}
  0
BLOCK_RECORD
  5
BC70
330
1
100
AcDbSymbolTableRecord
100
AcDbBlockTableRecord
  2
PBWS70-Left
340
0
102
{BLKREFS
331
BE0A
102
}
  0
BLOCK_RECORD
  5
BCAA
330
1
100
AcDbSymbolTableRecord
100
AcDbBlockTableRecord
  2
PBWS70-Right
340
0
102
{BLKREFS
331
BE0B
102
}
  0
BLOCK_RECORD
  5
BCE4
330
1
100
AcDbSymbolTableRecord
100
AcDbBlockTableRecord
  2
PBWS70-Top
340
0
102
{BLKREFS
331
BE0C
102
}
  0
BLOCK_RECORD
  5
BD25
330
1
100
AcDbSymbolTableRecord
100
AcDbBlockTableRecord
  2
PBWS70-Bottom
340
0
102
{BLKREFS
331
BE0D
102
}
  0
BLOCK_RECORD
  5
BD50
330
1
100
AcDbSymbolTableRecord
100
AcDbBlockTableRecord
  2
PBWS70-ISO
340
0
102
{BLKREFS
331
BE0E
102
}
  0
ENDTAB
  0
ENDSEC
  0
SECTION
  2
BLOCKS
  0
BLOCK
  5
20
330
1F
100
AcDbEntity
  8
0
100
AcDbBlockBegin
  2
*Model_Space
 70
     0
 10
0.0
 20
0.0
 30
0.0
  3
*Model_Space
  1

  0
ENDBLK
  5
21
330
1F
100
AcDbEntity
  8
0
100
AcDbBlockEnd
  0
BLOCK
  5
D4
330
D2
100
AcDbEntity
 67
     1
  8
0
100
AcDbBlockBegin
  2
*Paper_Space
 70
     0
 10
0.0
 20
0.0
 30
0.0
  3
*Paper_Space
  1

  0
ENDBLK
  5
D5
330
D2
100
AcDbEntity
 67
     1
  8
0
100
AcDbBlockEnd
  0
BLOCK
  5
D8
330
D6
100
AcDbEntity
 67
     1
  8
0
100
AcDbBlockBegin
  2
*Paper_Space0
 70
     0
 10
0.0
 20
0.0
 30
0.0
  3
*Paper_Space0
  1

  0
ENDBLK
  5
D9
330
D6
100
AcDbEntity
 67
     1
  8
0
100
AcDbBlockEnd
  0
BLOCK
  5
BC32
330
BC31
100
AcDbEntity
  8
0
100
AcDbBlockBegin
  2
PBWS70-Front
 70
     0
 10
0.0
 20
0.0
 30
0.0
  3
PBWS70-Front
  1

  0
LINE
  5
BC34
330
BC31
100
AcDbEntity
  8
0
100
AcDbLine
 10
18.30651650629884
 20
0.0
 30
0.0
 11
18.30699894281661
 21
0.0
 31
0.0
  0
LINE
  5
BC35
330
BC31
100
AcDbEntity
  8
0
100
AcDbLine
 10
3.276516506298583
 20
-2.999999999999938
 30
0.0
 11
3.276516506298552
 21
-5.999999999999933
 31
0.0
  0
LINE
  5
BC36
330
BC31
100
AcDbEntity
  8
0
100
AcDbLine
 10
18.30699894281677
 20
-5.999999999999952
 30
0.0
 11
18.3069989428166
 21
0.0
 31
0.0
  0
LINE
  5
BC37
330
BC31
100
AcDbEntity
  8
0
100
AcDbLine
 10
-8.723483493701383
 20
-197.937
 30
0.0
 11
-8.723483493701444
 21
-49.99999999999992
 31
0.0
  0
LINE
  5
BC38
330
BC31
100
AcDbEntity
  8
0
100
AcDbLine
 10
3.276516506298651
 20
-197.937
 30
0.0
 11
-8.723483493701385
 21
-197.937
 31
0.0
  0
LINE
  5
BC39
330
BC31
100
AcDbEntity
  8
0
100
AcDbLine
 10
-3.541502978361945
 20
-61.43933982822012
 30
0.0
 11
1.408244489943885
 21
-66.38908729652595
 31
0.0
  0
ARC
  5
BC3A
330
BC31
100
AcDbEntity
  8
0
100
AcDbCircle
 10
0.3475843181640687
 20
-67.44974746830576
 30
0.0
 40
1.499999999999995
100
AcDbArc
 50
225.0000000000005
 51
44.9999999999996
  0
LINE
  5
BC3B
330
BC31
100
AcDbEntity
  8
0
100
AcDbLine
 10
-0.7130758536157424
 20
-68.5104076400856
 30
0.0
 11
-5.662823321921589
 21
-63.56066017177976
 31
0.0
  0
ARC
  5
BC3C
330
BC31
100
AcDbEntity
  8
0
100
AcDbCircle
 10
-4.602163150141767
 20
-62.49999999999992
 30
0.0
 40
1.499999999999986
100
AcDbArc
 50
44.99999999999988
 51
225.0000000000003
  0
LINE
  5
BC3D
330
BC31
100
AcDbEntity
  8
0
100
AcDbLine
 10
-3.541502978361949
 20
-81.43933982822012
 30
0.0
 11
1.408244489943887
 21
-86.38908729652596
 31
0.0
  0
ARC
  5
BC3E
330
BC31
100
AcDbEntity
  8
0
100
AcDbCircle
 10
0.3475843181640909
 20
-87.44974746830578
 30
0.0
 40
1.499999999999995
100
AcDbArc
 50
224.999999999999
 51
45.00000000000103
  0
LINE
  5
BC3F
330
BC31
100
AcDbEntity
  8
0
100
AcDbLine
 10
-0.7130758536157474
 20
-88.51040764008557
 30
0.0
 11
-5.662823321921588
 21
-83.56066017177978
 31
0.0
  0
ARC
  5
BC40
330
BC31
100
AcDbEntity
  8
0
100
AcDbCircle
 10
-4.602163150141765
 20
-82.49999999999998
 30
0.0
 40
1.499999999999986
100
AcDbArc
 50
45.00000000000039
 51
225.0000000000003
  0
LINE
  5
BC41
330
BC31
100
AcDbEntity
  8
0
100
AcDbLine
 10
-3.541502978361932
 20
-101.4393398282201
 30
0.0
 11
1.408244489943915
 21
-106.389087296526
 31
0.0
  0
ARC
  5
BC42
330
BC31
100
AcDbEntity
  8
0
100
AcDbCircle
 10
0.3475843181640976
 20
-107.4497474683058
 30
0.0
 40
1.499999999999995
100
AcDbArc
 50
224.9999999999992
 51
45.00000000000008
  0
LINE
  5
BC43
330
BC31
100
AcDbEntity
  8
0
100
AcDbLine
 10
-0.7130758536157279
 20
-108.5104076400856
 30
0.0
 11
-5.662823321921553
 21
-103.5606601717798
 31
0.0
  0
ARC
  5
BC44
330
BC31
100
AcDbEntity
  8
0
100
AcDbCircle
 10
-4.602163150141759
 20
-102.5
 30
0.0
 40
1.499999999999986
100
AcDbArc
 50
45.00000000000041
 51
225.0000000000003
  0
LINE
  5
BC45
330
BC31
100
AcDbEntity
  8
0
100
AcDbLine
 10
-3.541502978361911
 20
-121.4393398282201
 30
0.0
 11
1.408244489943911
 21
-126.389087296526
 31
0.0
  0
ARC
  5
BC46
330
BC31
100
AcDbEntity
  8
0
100
AcDbCircle
 10
0.3475843181641098
 20
-127.4497474683058
 30
0.0
 40
1.499999999999995
100
AcDbArc
 50
224.9999999999994
 51
45.00000000000015
  0
LINE
  5
BC47
330
BC31
100
AcDbEntity
  8
0
100
AcDbLine
 10
-0.7130758536156968
 20
-128.5104076400856
 30
0.0
 11
-5.662823321921559
 21
-123.5606601717798
 31
0.0
  0
ARC
  5
BC48
330
BC31
100
AcDbEntity
  8
0
100
AcDbCircle
 10
-4.602163150141749
 20
-122.5
 30
0.0
 40
1.499999999999986
100
AcDbArc
 50
44.9999999999996
 51
224.9999999999995
  0
LINE
  5
BC49
330
BC31
100
AcDbEntity
  8
0
100
AcDbLine
 10
-3.541502978361917
 20
-141.4393398282202
 30
0.0
 11
1.408244489943912
 21
-146.389087296526
 31
0.0
  0
ARC
  5
BC4A
330
BC31
100
AcDbEntity
  8
0
100
AcDbCircle
 10
0.3475843181641198
 20
-147.4497474683057
 30
0.0
 40
1.499999999999995
100
AcDbArc
 50
225.0
 51
45.00000000000008
  0
LINE
  5
BC4B
330
BC31
100
AcDbEntity
  8
0
100
AcDbLine
 10
-0.7130758536157263
 20
-148.5104076400856
 30
0.0
 11
-5.662823321921557
 21
-143.5606601717798
 31
0.0
  0
ARC
  5
BC4C
330
BC31
100
AcDbEntity
  8
0
100
AcDbCircle
 10
-4.602163150141739
 20
-142.5
 30
0.0
 40
1.499999999999986
100
AcDbArc
 50
45.00000000000031
 51
224.9999999999985
  0
LINE
  5
BC4D
330
BC31
100
AcDbEntity
  8
0
100
AcDbLine
 10
-3.541502978361902
 20
-161.4393398282202
 30
0.0
 11
1.408244489943942
 21
-166.389087296526
 31
0.0
  0
ARC
  5
BC4E
330
BC31
100
AcDbEntity
  8
0
100
AcDbCircle
 10
0.3475843181641353
 20
-167.4497474683058
 30
0.0
 40
1.499999999999995
100
AcDbArc
 50
224.9999999999992
 51
45.00000000000103
  0
LINE
  5
BC4F
330
BC31
100
AcDbEntity
  8
0
100
AcDbLine
 10
-0.7130758536156908
 20
-168.5104076400856
 30
0.0
 11
-5.662823321921538
 21
-163.5606601717798
 31
0.0
  0
ARC
  5
BC50
330
BC31
100
AcDbEntity
  8
0
100
AcDbCircle
 10
-4.602163150141737
 20
-162.5
 30
0.0
 40
1.499999999999986
100
AcDbArc
 50
45.00000000000094
 51
224.9999999999994
  0
LINE
  5
BC51
330
BC31
100
AcDbEntity
  8
0
100
AcDbLine
 10
-3.541502978361883
 20
-181.4393398282201
 30
0.0
 11
1.408244489943927
 21
-186.3890872965259
 31
0.0
  0
ARC
  5
BC52
330
BC31
100
AcDbEntity
  8
0
100
AcDbCircle
 10
0.3475843181641364
 20
-187.4497474683057
 30
0.0
 40
1.499999999999995
100
AcDbArc
 50
225.000000000001
 51
45.00000000000087
  0
LINE
  5
BC53
330
BC31
100
AcDbEntity
  8
0
100
AcDbLine
 10
-0.7130758536157196
 20
-188.5104076400856
 30
0.0
 11
-5.662823321921534
 21
-183.5606601717797
 31
0.0
  0
ARC
  5
BC54
330
BC31
100
AcDbEntity
  8
0
100
AcDbCircle
 10
-4.602163150141717
 20
-182.5
 30
0.0
 40
1.499999999999986
100
AcDbArc
 50
44.99999999999918
 51
224.9999999999995
  0
LINE
  5
BC55
330
BC31
100
AcDbEntity
  8
0
100
AcDbLine
 10
-20.28148349370147
 20
-5.999999999999942
 30
0.0
 11
-8.723483493701444
 21
-49.99999999999993
 31
0.0
  0
LINE
  5
BC56
330
BC31
100
AcDbEntity
  8
0
100
AcDbLine
 10
-20.28148349370149
 20
-5.999999999999942
 30
0.0
 11
-20.28148349370146
 21
-2.999999999999964
 31
0.0
  0
LINE
  5
BC57
330
BC31
100
AcDbEntity
  8
0
100
AcDbLine
 10
9.276516506298628
 20
-40.37802623350054
 30
0.0
 11
18.30699894281678
 21
-5.999999999999952
 31
0.0
  0
ARC
  5
BC58
330
BC31
100
AcDbEntity
  8
0
100
AcDbCircle
 10
0.5569989428159698
 20
60.25000000000011
 30
0.0
 40
2.500000000000001
100
AcDbArc
 50
128.1481142121799
 51
231.8518857878195
  0
CIRCLE
  5
BC59
330
BC31
100
AcDbEntity
  8
0
100
AcDbCircle
 10
-2.531483493701225
 20
60.25000000000013
 30
0.0
 40
2.5
  0
CIRCLE
  5
BC5A
330
BC31
100
AcDbEntity
  8
0
100
AcDbCircle
 10
-12.28148349370121
 20
41.50000000000013
 30
0.0
 40
2.5
  0
CIRCLE
  5
BC5B
330
BC31
100
AcDbEntity
  8
0
100
AcDbCircle
 10
9.306516506298825
 20
78.00000000000022
 30
0.0
 40
4.250000000000001
  0
LINE
  5
BC5C
330
BC31
100
AcDbEntity
  8
0
100
AcDbLine
 10
18.30651650629884
 20
-2.999999999999973
 30
0.0
 11
-20.2814834937012
 21
-2.999999999999968
 31
0.0
  0
LINE
  5
BC5D
330
BC31
100
AcDbEntity
  8
0
100
AcDbLine
 10
18.30699894281597
 20
2.999999999999966
 30
0.0
 11
18.30699894281605
 21
0.0
 31
0.0
  0
LINE
  5
BC5E
330
BC31
100
AcDbEntity
  8
0
100
AcDbLine
 10
-20.28148349370119
 20
2.999999999999939
 30
0.0
 11
-20.28148349370123
 21
-2.999999999999998
 31
0.0
  0
LINE
  5
BC5F
330
BC31
100
AcDbEntity
  8
0
100
AcDbLine
 10
18.30651650629881
 20
-2.999999999999976
 30
0.0
 11
18.30651650629885
 21
3.000000000000024
 31
0.0
  0
LINE
  5
BC60
330
BC31
100
AcDbEntity
  8
0
100
AcDbLine
 10
13.306998942816
 20
87.00000000000009
 30
0.0
 11
18.30699894281589
 21
82.00000000000006
 31
0.0
  0
LINE
  5
BC61
330
BC31
100
AcDbEntity
  8
0
100
AcDbLine
 10
13.30651650629881
 20
87.00000000000017
 30
0.0
 11
18.30651650629875
 21
82.0000000000002
 31
0.0
  0
LINE
  5
BC62
330
BC31
100
AcDbEntity
  8
0
100
AcDbLine
 10
-20.28148349370127
 20
82.00000000000015
 30
0.0
 11
-15.28148349370128
 21
87.00000000000017
 31
0.0
  0
LINE
  5
BC63
330
BC31
100
AcDbEntity
  8
0
100
AcDbLine
 10
18.30699894281589
 20
82.00000000000006
 30
0.0
 11
18.30699894281598
 21
2.999999999999971
 31
0.0
  0
LINE
  5
BC64
330
BC31
100
AcDbEntity
  8
0
100
AcDbLine
 10
13.306998942816
 20
87.00000000000009
 30
0.0
 11
13.30651650629879
 21
87.00000000000009
 31
0.0
  0
LINE
  5
BC65
330
BC31
100
AcDbEntity
  8
0
100
AcDbLine
 10
-15.28148349370128
 20
87.00000000000017
 30
0.0
 11
13.30651650629881
 21
87.00000000000017
 31
0.0
  0
LINE
  5
BC66
330
BC31
100
AcDbEntity
  8
0
100
AcDbLine
 10
-20.28148349370115
 20
2.99999999999994
 30
0.0
 11
-20.28148349370127
 21
82.00000000000015
 31
0.0
  0
LINE
  5
BC67
330
BC31
100
AcDbEntity
  8
0
100
AcDbLine
 10
18.30651650629875
 20
82.0000000000002
 30
0.0
 11
18.30651650629885
 21
3.000000000000024
 31
0.0
  0
SPLINE
  5
BC68
330
BC31
100
AcDbEntity
  8
0
100
AcDbSpline
210
0.0
220
0.0
230
1.0
 70
     8
 71
     3
 72
     8
 73
     4
 74
     0
 42
0.000000001
 43
0.0000000001
 40
-0.7853981633974483
 40
-0.7853981633974483
 40
-0.7853981633974483
 40
-0.7853981633974483
 40
0.4300566693912145
 40
0.4300566693912145
 40
0.4300566693912145
 40
0.4300566693912145
 10
5.321844428310479
 20
-5.999999999999809
 30
0.0
 10
5.321844428310479
 20
-6.607727416394141
 30
0.0
 10
5.102816812626994
 20
-7.194170623525302
 30
0.0
 10
4.729484267181327
 20
-7.40627977532223
 30
0.0
  0
SPLINE
  5
BC69
330
BC31
100
AcDbEntity
  8
0
100
AcDbSpline
210
0.0
220
0.0
230
1.0
 70
     8
 71
     3
 72
    14
 73
    10
 74
     0
 42
0.000000001
 43
0.0000000001
 40
-0.785398163397379
 40
-0.785398163397379
 40
-0.785398163397379
 40
-0.785398163397379
 40
0.3160919271552698
 40
0.3160919271552698
 40
0.3160919271552698
 40
1.299764733775543
 40
1.299764733775543
 40
1.299764733775543
 40
2.356194490192187
 40
2.356194490192187
 40
2.356194490192187
 40
2.356194490192187
 10
3.276516506298134
 20
-5.999999999999915
 30
0.0
 10
3.276516506298192
 20
-6.55074504527624
 30
0.0
 10
3.779084263782365
 20
-7.088739243414091
 30
0.0
 10
4.500568670146388
 20
-7.337823404552502
 30
0.0
 10
5.144881857371505
 20
-7.560265093291387
 30
0.0
 10
5.917324802815197
 20
-7.54788218658634
 30
0.0
 10
6.461771453089619
 20
-7.305906800767737
 30
0.0
 10
7.046487873285731
 20
-7.046033806232623
 30
0.0
 10
7.367172350322225
 20
-6.528214878208345
 30
0.0
 10
7.367172350322316
 20
-6.000000000000022
 30
0.0
  0
LINE
  5
BC6A
330
BC31
100
AcDbEntity
  8
0
100
AcDbLine
 10
7.367172350322658
 20
-5.999999999999809
 30
0.0
 11
7.367172350322657
 21
-2.999999999999977
 31
0.0
  0
LINE
  5
BC6B
330
BC31
100
AcDbEntity
  8
0
100
AcDbLine
 10
5.321844428310588
 20
-5.999999999999809
 30
0.0
 11
5.321844428310587
 21
-2.999999999999978
 31
0.0
  0
LINE
  5
BC6C
330
BC31
100
AcDbEntity
  8
0
100
AcDbLine
 10
-8.723483493701412
 20
-197.937
 30
0.0
 11
-11.25100105718307
 21
-197.937
 31
0.0
  0
LINE
  5
BC6D
330
BC31
100
AcDbEntity
  8
0
100
AcDbLine
 10
9.276516506298605
 20
-197.9370000000001
 30
0.0
 11
3.276516506298653
 21
-197.9370000000001
 31
0.0
  0
LINE
  5
BC6E
330
BC31
100
AcDbEntity
  8
0
100
AcDbLine
 10
-11.25100105718307
 20
-197.937
 30
0.0
 11
-11.25100105718316
 21
-40.37802623350096
 31
0.0
  0
LINE
  5
BC6F
330
BC31
100
AcDbEntity
  8
0
100
AcDbLine
 10
9.276516506298687
 20
-197.9370000000001
 30
0.0
 11
9.2765165062986
 21
-2.999999999999971
 31
0.0
  0
ENDBLK
  5
BC33
330
BC31
100
AcDbEntity
  8
0
100
AcDbBlockEnd
  0
BLOCK
  5
BC71
330
BC70
100
AcDbEntity
  8
0
100
AcDbBlockBegin
  2
PBWS70-Left
 70
     0
 10
0.0
 20
0.0
 30
0.0
  3
PBWS70-Left
  1

  0
ARC
  5
BC73
330
BC70
100
AcDbEntity
  8
0
100
AcDbCircle
 10
-9.536272079978708
 20
-5.999999999999955
 30
0.0
 40
3.000000000000009
100
AcDbArc
 50
0.0
 51
90.00000000000017
  0
ARC
  5
BC74
330
BC70
100
AcDbEntity
  8
0
100
AcDbCircle
 10
-9.536272079978715
 20
-5.999999999999955
 30
0.0
 40
6.000000000000013
100
AcDbArc
 50
39.78608288672409
 51
89.9999999999998
  0
LINE
  5
BC75
330
BC70
100
AcDbEntity
  8
0
100
AcDbLine
 10
-6.53627207997872
 20
-5.999999999999962
 30
0.0
 11
-6.536272079978752
 21
-197.937
 31
0.0
  0
LINE
  5
BC76
330
BC70
100
AcDbEntity
  8
0
100
AcDbLine
 10
-17.25427207997829
 20
0.0
 30
0.0
 11
-31.01299894247831
 21
0.0
 31
0.0
  0
LINE
  5
BC77
330
BC70
100
AcDbEntity
  8
0
100
AcDbLine
 10
-31.01299894247831
 20
-2.999999999999972
 30
0.0
 11
-17.2542720799783
 21
-2.999999999999966
 31
0.0
  0
LINE
  5
BC78
330
BC70
100
AcDbEntity
  8
0
100
AcDbLine
 10
-12.25427207997841
 20
0.0
 30
0.0
 11
-17.25427207997829
 21
0.0
 31
0.0
  0
LINE
  5
BC79
330
BC70
100
AcDbEntity
  8
0
100
AcDbLine
 10
-17.25427207997829
 20
0.0
 30
0.0
 11
-17.2542720799783
 21
-2.999999999999966
 31
0.0
  0
LINE
  5
BC7A
330
BC70
100
AcDbEntity
  8
0
100
AcDbLine
 10
-17.2542720799783
 20
-2.999999999999966
 30
0.0
 11
-12.25427207997842
 21
-2.999999999999962
 31
0.0
  0
LINE
  5
BC7B
330
BC70
100
AcDbEntity
  8
0
100
AcDbLine
 10
-12.25427207997842
 20
-2.999999999999962
 30
0.0
 11
-12.25427207997841
 21
0.0
 31
0.0
  0
LINE
  5
BC7C
330
BC70
100
AcDbEntity
  8
0
100
AcDbLine
 10
-10.75427207997868
 20
0.0
 30
0.0
 11
-12.25427207997865
 21
0.0
 31
0.0
  0
LINE
  5
BC7D
330
BC70
100
AcDbEntity
  8
0
100
AcDbLine
 10
-12.25427207997866
 20
-2.999999999999973
 30
0.0
 11
-10.7542720799787
 21
-2.999999999999975
 31
0.0
  0
LINE
  5
BC7E
330
BC70
100
AcDbEntity
  8
0
100
AcDbLine
 10
-9.536272079978694
 20
0.0
 30
0.0
 11
-10.75427207997869
 21
0.0
 31
0.0
  0
LINE
  5
BC7F
330
BC70
100
AcDbEntity
  8
0
100
AcDbLine
 10
-10.7542720799787
 20
-2.999999999999942
 30
0.0
 11
-9.536272079978717
 21
-2.999999999999935
 31
0.0
  0
LINE
  5
BC80
330
BC70
100
AcDbEntity
  8
0
100
AcDbLine
 10
32.98700105732388
 20
0.0
 30
0.0
 11
11.51027419482388
 21
0.0
 31
0.0
  0
ARC
  5
BC81
330
BC70
100
AcDbEntity
  8
0
100
AcDbCircle
 10
11.51027419482387
 20
-5.99999999999996
 30
0.0
 40
5.999999999999994
100
AcDbArc
 50
90.00000000000003
 51
180.0
  0
ARC
  5
BC82
330
BC70
100
AcDbEntity
  8
0
100
AcDbCircle
 10
11.51027419482389
 20
-5.999999999999952
 30
0.0
 40
2.999999999999987
100
AcDbArc
 50
90.00000000000026
 51
180.0
  0
LINE
  5
BC83
330
BC70
100
AcDbEntity
  8
0
100
AcDbLine
 10
11.51027419482387
 20
-2.999999999999969
 30
0.0
 11
32.98700105732387
 21
-2.999999999999968
 31
0.0
  0
LINE
  5
BC84
330
BC70
100
AcDbEntity
  8
0
100
AcDbLine
 10
8.510274194823736
 20
-197.937
 30
0.0
 11
8.51027419482453
 21
-49.99999999999992
 31
0.0
  0
LINE
  5
BC85
330
BC70
100
AcDbEntity
  8
0
100
AcDbLine
 10
5.510274194824502
 20
-49.99999999999992
 30
0.0
 11
5.510274194823727
 21
-197.937
 31
0.0
  0
LINE
  5
BC86
330
BC70
100
AcDbEntity
  8
0
100
AcDbLine
 10
5.510274194823727
 20
-197.937
 30
0.0
 11
8.510274194823736
 21
-197.937
 31
0.0
  0
LINE
  5
BC87
330
BC70
100
AcDbEntity
  8
0
100
AcDbLine
 10
8.510274194823866
 20
-5.999999999999942
 30
0.0
 11
8.51027419482453
 21
-49.99999999999993
 31
0.0
  0
LINE
  5
BC88
330
BC70
100
AcDbEntity
  8
0
100
AcDbLine
 10
5.510274194824502
 20
-49.99999999999992
 30
0.0
 11
5.510274194823852
 21
-5.999999999999934
 31
0.0
  0
LINE
  5
BC89
330
BC70
100
AcDbEntity
  8
0
100
AcDbLine
 10
5.510274194823852
 20
-5.999999999999934
 30
0.0
 11
8.510274194823866
 21
-5.999999999999942
 31
0.0
  0
LINE
  5
BC8A
330
BC70
100
AcDbEntity
  8
0
100
AcDbLine
 10
8.51027419482453
 20
-49.99999999999993
 30
0.0
 11
5.510274194824502
 21
-49.99999999999992
 31
0.0
  0
LINE
  5
BC8B
330
BC70
100
AcDbEntity
  8
0
100
AcDbLine
 10
5.463727920021295
 20
0.0
 30
0.0
 11
6.899640295498223
 21
0.0
 31
0.0
  0
LINE
  5
BC8C
330
BC70
100
AcDbEntity
  8
0
100
AcDbLine
 10
-4.925638180653308
 20
-5.999999999999983
 30
0.0
 11
-4.925638180653302
 21
0.0
 31
0.0
  0
LINE
  5
BC8D
330
BC70
100
AcDbEntity
  8
0
100
AcDbLine
 10
6.899640295498215
 20
-2.160461610246693
 30
0.0
 11
6.899640295498223
 21
0.0
 31
0.0
  0
LINE
  5
BC8E
330
BC70
100
AcDbEntity
  8
0
100
AcDbLine
 10
5.463727920021302
 20
0.0
 30
0.0
 11
-4.925638180653304
 21
0.0
 31
0.0
  0
LINE
  5
BC8F
330
BC70
100
AcDbEntity
  8
0
100
AcDbLine
 10
-34.01299894247838
 20
82.00000000000009
 30
0.0
 11
-34.01299894247844
 21
87.00000000000009
 31
0.0
  0
LINE
  5
BC90
330
BC70
100
AcDbEntity
  8
0
100
AcDbLine
 10
38.98700105732404
 20
87.00000000000017
 30
0.0
 11
35.98700105732404
 21
87.0000000000002
 31
0.0
  0
LINE
  5
BC91
330
BC70
100
AcDbEntity
  8
0
100
AcDbLine
 10
35.98700105732404
 20
87.0000000000002
 30
0.0
 11
35.98700105732406
 21
82.00000000000017
 31
0.0
  0
LINE
  5
BC92
330
BC70
100
AcDbEntity
  8
0
100
AcDbLine
 10
38.98700105732407
 20
82.00000000000015
 30
0.0
 11
38.98700105732404
 21
87.00000000000017
 31
0.0
  0
LINE
  5
BC93
330
BC70
100
AcDbEntity
  8
0
100
AcDbLine
 10
35.98700105732406
 20
82.00000000000017
 30
0.0
 11
38.98700105732407
 21
82.00000000000015
 31
0.0
  0
LINE
  5
BC94
330
BC70
100
AcDbEntity
  8
0
100
AcDbLine
 10
-37.01299894247843
 20
87.00000000000009
 30
0.0
 11
-37.01299894247839
 21
82.00000000000015
 31
0.0
  0
LINE
  5
BC95
330
BC70
100
AcDbEntity
  8
0
100
AcDbLine
 10
-37.01299894247839
 20
82.00000000000015
 30
0.0
 11
-34.01299894247838
 21
82.00000000000009
 31
0.0
  0
LINE
  5
BC96
330
BC70
100
AcDbEntity
  8
0
100
AcDbLine
 10
-34.01299894247844
 20
87.00000000000009
 30
0.0
 11
-37.01299894247843
 21
87.00000000000009
 31
0.0
  0
LINE
  5
BC97
330
BC70
100
AcDbEntity
  8
0
100
AcDbLine
 10
-34.01299894247838
 20
82.00000000000009
 30
0.0
 11
-34.01299894247842
 21
2.999999999999953
 31
0.0
  0
LINE
  5
BC98
330
BC70
100
AcDbEntity
  8
0
100
AcDbLine
 10
35.98700105732406
 20
82.00000000000017
 30
0.0
 11
35.98700105732387
 21
2.999999999999953
 31
0.0
  0
LINE
  5
BC99
330
BC70
100
AcDbEntity
  8
0
100
AcDbLine
 10
38.98700105732388
 20
2.999999999999939
 30
0.0
 11
38.98700105732407
 21
82.00000000000015
 31
0.0
  0
LINE
  5
BC9A
330
BC70
100
AcDbEntity
  8
0
100
AcDbLine
 10
-37.01299894247839
 20
82.00000000000015
 30
0.0
 11
-37.01299894247843
 21
2.999999999999953
 31
0.0
  0
ARC
  5
BC9B
330
BC70
100
AcDbEntity
  8
0
100
AcDbCircle
 10
-31.01299894247843
 20
2.999999999999936
 30
0.0
 40
5.999999999999998
100
AcDbArc
 50
180.0
 51
270.0000000000011
  0
ARC
  5
BC9C
330
BC70
100
AcDbEntity
  8
0
100
AcDbCircle
 10
-31.01299894247843
 20
2.999999999999936
 30
0.0
 40
3.0
100
AcDbArc
 50
180.0
 51
270.0000000000021
  0
ARC
  5
BC9D
330
BC70
100
AcDbEntity
  8
0
100
AcDbCircle
 10
32.98700105732391
 20
2.999999999999955
 30
0.0
 40
5.999999999999953
100
AcDbArc
 50
269.9999999999996
 51
0.0
  0
ARC
  5
BC9E
330
BC70
100
AcDbEntity
  8
0
100
AcDbCircle
 10
32.98700105732391
 20
2.999999999999955
 30
0.0
 40
2.999999999999939
100
AcDbArc
 50
269.9999999999994
 51
0.0
  0
SPLINE
  5
BC9F
330
BC70
100
AcDbEntity
  8
0
100
AcDbSpline
210
0.0
220
0.0
230
1.0
 70
     8
 71
     3
 72
    11
 73
     7
 74
     0
 42
0.000000001
 43
0.0000000001
 40
1.343715047943335
 40
1.343715047943335
 40
1.343715047943335
 40
1.343715047943335
 40
1.569165144395761
 40
1.569165144395761
 40
1.569165144395761
 40
2.356194490192126
 40
2.356194490192126
 40
2.356194490192126
 40
2.356194490192126
 10
5.461260584833695
 20
-7.269812748612062
 30
0.0
 10
5.475114289613216
 20
-7.211311675663008
 30
0.0
 10
5.485452431583189
 20
-7.141967410822365
 30
0.0
 10
5.49204506776838
 20
-7.062388890137407
 30
0.0
 10
5.515059465302687
 20
-6.784586254167632
 30
0.0
 10
5.510274194823647
 20
-6.393514672898312
 30
0.0
 10
5.510274194823647
 20
-6.000000000000129
 30
0.0
  0
SPLINE
  5
BCA0
330
BC70
100
AcDbEntity
  8
0
100
AcDbSpline
210
0.0
220
0.0
230
1.0
 70
     8
 71
     3
 72
    14
 73
    10
 74
     0
 42
0.000000001
 43
0.0000000001
 40
-0.7853981633974377
 40
-0.7853981633974377
 40
-0.7853981633974377
 40
-0.7853981633974377
 40
0.3160919271552168
 40
0.3160919271552168
 40
0.3160919271552168
 40
1.299764733775488
 40
1.299764733775488
 40
1.299764733775488
 40
2.356194490192299
 40
2.356194490192299
 40
2.356194490192299
 40
2.356194490192299
 10
-6.536272079978736
 20
-5.999999999999979
 30
0.0
 10
-6.536272079978743
 20
-6.550745045276307
 30
0.0
 10
-6.560437653343914
 20
-7.0887392434142
 30
0.0
 10
-6.410086539099691
 20
-7.337823404552638
 30
0.0
 10
-6.275817239906185
 20
-7.560265093291544
 30
0.0
 10
-5.962032630250178
 20
-7.547882186586526
 30
0.0
 10
-5.620969801961878
 20
-7.305906800767944
 30
0.0
 10
-5.254680403508961
 20
-7.046033806232815
 30
0.0
 10
-4.925638180653296
 20
-6.528214878208423
 30
0.0
 10
-4.925638180653271
 20
-6.000000000000018
 30
0.0
  0
LINE
  5
BCA1
330
BC70
100
AcDbEntity
  8
0
100
AcDbLine
 10
5.463727920021261
 20
-197.937
 30
0.0
 11
-6.536272079978746
 21
-197.937
 31
0.0
  0
LINE
  5
BCA2
330
BC70
100
AcDbEntity
  8
0
100
AcDbLine
 10
5.463727920021259
 20
-197.9370000000001
 30
0.0
 11
5.510274194823619
 21
-197.9370000000001
 31
0.0
  0
ARC
  5
BCA3
330
BC70
100
AcDbEntity
  8
0
100
AcDbCircle
 10
-12.24337886116551
 20
-3.999999999999949
 30
0.0
 40
1.0
100
AcDbArc
 50
44.99999999999995
 51
90.0
  0
ARC
  5
BCA4
330
BC70
100
AcDbEntity
  8
0
100
AcDbCircle
 10
-7.536272079979049
 20
-8.70710678118643
 30
0.0
 40
1.0
100
AcDbArc
 50
0.0
 51
44.99999999999995
  0
ARC
  5
BCA5
330
BC70
100
AcDbEntity
  8
0
100
AcDbCircle
 10
14.21738097601013
 20
-3.999999999999958
 30
0.0
 40
1.0
100
AcDbArc
 50
89.99999999999962
 51
135.0
  0
ARC
  5
BCA6
330
BC70
100
AcDbEntity
  8
0
100
AcDbCircle
 10
9.510274194823445
 20
-8.707106781186645
 30
0.0
 40
1.0
100
AcDbArc
 50
134.9999999999999
 51
180.0
  0
LINE
  5
BCA7
330
BC70
100
AcDbEntity
  8
0
100
AcDbLine
 10
-6.829165298792495
 20
-7.999999999999875
 30
0.0
 11
-11.53627207997897
 21
-3.2928932188134
 31
0.0
  0
LINE
  5
BCA8
330
BC70
100
AcDbEntity
  8
0
100
AcDbLine
 10
8.803167413636895
 20
-8.000000000000099
 30
0.0
 11
13.51027419482358
 21
-3.29289321881341
 31
0.0
  0
LINE
  5
BCA9
330
BC70
100
AcDbEntity
  8
0
100
AcDbLine
 10
5.463727920021263
 20
-197.937
 30
0.0
 11
5.463727920021299
 21
0.0
 31
0.0
  0
ENDBLK
  5
BC72
330
BC70
100
AcDbEntity
  8
0
100
AcDbBlockEnd
  0
BLOCK
  5
BCAB
330
BCAA
100
AcDbEntity
  8
0
100
AcDbBlockBegin
  2
PBWS70-Right
 70
     0
 10
0.0
 20
0.0
 30
0.0
  3
PBWS70-Right
  1

  0
LINE
  5
BCAD
330
BCAA
100
AcDbEntity
  8
0
100
AcDbLine
 10
6.536272079979079
 20
-197.937
 30
0.0
 11
6.536272079978934
 21
-50.0
 31
0.0
  0
LINE
  5
BCAE
330
BCAA
100
AcDbEntity
  8
0
100
AcDbLine
 10
3.536272079979062
 20
-50.0
 30
0.0
 11
3.536272079979074
 21
-197.937
 31
0.0
  0
LINE
  5
BCAF
330
BCAA
100
AcDbEntity
  8
0
100
AcDbLine
 10
3.536272079979074
 20
-197.937
 30
0.0
 11
6.536272079979079
 21
-197.937
 31
0.0
  0
LINE
  5
BCB0
330
BCAA
100
AcDbEntity
  8
0
100
AcDbLine
 10
6.536272079979339
 20
-5.99999999999995
 30
0.0
 11
6.536272079978934
 21
-50.0
 31
0.0
  0
LINE
  5
BCB1
330
BCAA
100
AcDbEntity
  8
0
100
AcDbLine
 10
3.536272079979062
 20
-50.0
 30
0.0
 11
3.536272079979343
 21
-5.999999999999952
 31
0.0
  0
LINE
  5
BCB2
330
BCAA
100
AcDbEntity
  8
0
100
AcDbLine
 10
3.536272079979343
 20
-5.999999999999952
 30
0.0
 11
6.536272079979339
 21
-5.99999999999995
 31
0.0
  0
LINE
  5
BCB3
330
BCAA
100
AcDbEntity
  8
0
100
AcDbLine
 10
6.536272079978934
 20
-50.0
 30
0.0
 11
3.536272079979062
 21
-50.0
 31
0.0
  0
LINE
  5
BCB4
330
BCAA
100
AcDbEntity
  8
0
100
AcDbLine
 10
31.01299894247937
 20
0.0
 30
0.0
 11
9.536272079979347
 21
0.0
 31
0.0
  0
ARC
  5
BCB5
330
BCAA
100
AcDbEntity
  8
0
100
AcDbCircle
 10
9.536272079979346
 20
-5.999999999999941
 30
0.0
 40
6.000000000000008
100
AcDbArc
 50
89.99999999999996
 51
180.0
  0
ARC
  5
BCB6
330
BCAA
100
AcDbEntity
  8
0
100
AcDbCircle
 10
9.536272079979346
 20
-5.999999999999941
 30
0.0
 40
3.000000000000009
100
AcDbArc
 50
90.00000000000007
 51
180.0
  0
LINE
  5
BCB7
330
BCAA
100
AcDbEntity
  8
0
100
AcDbLine
 10
9.536272079979339
 20
-2.999999999999932
 30
0.0
 11
31.01299894247937
 21
-2.99999999999993
 31
0.0
  0
ARC
  5
BCB8
330
BCAA
100
AcDbEntity
  8
0
100
AcDbCircle
 10
-11.51027419482362
 20
-5.999999999999942
 30
0.0
 40
6.000000000000019
100
AcDbArc
 50
39.7860828867246
 51
89.99999999999992
  0
ARC
  5
BCB9
330
BCAA
100
AcDbEntity
  8
0
100
AcDbCircle
 10
-11.51027419482362
 20
-5.999999999999951
 30
0.0
 40
3.000000000000011
100
AcDbArc
 50
0.0
 51
89.99999999999987
  0
LINE
  5
BCBA
330
BCAA
100
AcDbEntity
  8
0
100
AcDbLine
 10
-19.22827419482343
 20
0.0
 30
0.0
 11
-32.98700105732348
 21
0.0
 31
0.0
  0
LINE
  5
BCBB
330
BCAA
100
AcDbEntity
  8
0
100
AcDbLine
 10
-32.98700105732349
 20
-2.999999999999973
 30
0.0
 11
-19.22827419482343
 21
-2.999999999999939
 31
0.0
  0
LINE
  5
BCBC
330
BCAA
100
AcDbEntity
  8
0
100
AcDbLine
 10
-14.22827419482349
 20
0.0
 30
0.0
 11
-19.22827419482343
 21
0.0
 31
0.0
  0
LINE
  5
BCBD
330
BCAA
100
AcDbEntity
  8
0
100
AcDbLine
 10
-19.22827419482343
 20
0.0
 30
0.0
 11
-19.22827419482343
 21
-2.999999999999939
 31
0.0
  0
LINE
  5
BCBE
330
BCAA
100
AcDbEntity
  8
0
100
AcDbLine
 10
-19.22827419482343
 20
-2.999999999999939
 30
0.0
 11
-14.22827419482349
 21
-2.999999999999928
 31
0.0
  0
LINE
  5
BCBF
330
BCAA
100
AcDbEntity
  8
0
100
AcDbLine
 10
-14.22827419482349
 20
-2.999999999999928
 30
0.0
 11
-14.22827419482349
 21
0.0
 31
0.0
  0
LINE
  5
BCC0
330
BCAA
100
AcDbEntity
  8
0
100
AcDbLine
 10
-12.72827419482361
 20
0.0
 30
0.0
 11
-14.22827419482359
 21
0.0
 31
0.0
  0
LINE
  5
BCC1
330
BCAA
100
AcDbEntity
  8
0
100
AcDbLine
 10
-14.22827419482359
 20
-2.999999999999937
 30
0.0
 11
-12.72827419482361
 21
-2.999999999999941
 31
0.0
  0
LINE
  5
BCC2
330
BCAA
100
AcDbEntity
  8
0
100
AcDbLine
 10
-11.51027419482361
 20
0.0
 30
0.0
 11
-12.72827419482361
 21
0.0
 31
0.0
  0
LINE
  5
BCC3
330
BCAA
100
AcDbEntity
  8
0
100
AcDbLine
 10
-12.72827419482361
 20
-2.999999999999929
 30
0.0
 11
-11.51027419482361
 21
-2.999999999999943
 31
0.0
  0
LINE
  5
BCC4
330
BCAA
100
AcDbEntity
  8
0
100
AcDbLine
 10
-8.510274194823621
 20
-197.937
 30
0.0
 11
-8.510274194823605
 21
-5.999999999999943
 31
0.0
  0
LINE
  5
BCC5
330
BCAA
100
AcDbEntity
  8
0
100
AcDbLine
 10
3.48972580517646
 20
0.0
 30
0.0
 11
-6.899640295498219
 21
0.0
 31
0.0
  0
LINE
  5
BCC6
330
BCAA
100
AcDbEntity
  8
0
100
AcDbLine
 10
4.925638180653307
 20
-2.160461610247147
 30
0.0
 11
4.925638180653302
 21
0.0
 31
0.0
  0
LINE
  5
BCC7
330
BCAA
100
AcDbEntity
  8
0
100
AcDbLine
 10
3.489725805176512
 20
0.0
 30
0.0
 11
4.925638180653302
 21
0.0
 31
0.0
  0
LINE
  5
BCC8
330
BCAA
100
AcDbEntity
  8
0
100
AcDbLine
 10
-6.899640295498215
 20
-5.999999999999809
 30
0.0
 11
-6.899640295498223
 21
0.0
 31
0.0
  0
LINE
  5
BCC9
330
BCAA
100
AcDbEntity
  8
0
100
AcDbLine
 10
37.0129989424793
 20
82.00000000000009
 30
0.0
 11
37.01299894247918
 21
87.00000000000009
 31
0.0
  0
LINE
  5
BCCA
330
BCAA
100
AcDbEntity
  8
0
100
AcDbLine
 10
37.01299894247918
 20
87.00000000000009
 30
0.0
 11
34.01299894247916
 21
87.00000000000009
 31
0.0
  0
LINE
  5
BCCB
330
BCAA
100
AcDbEntity
  8
0
100
AcDbLine
 10
34.01299894247916
 20
87.00000000000009
 30
0.0
 11
34.01299894247915
 21
82.00000000000006
 31
0.0
  0
LINE
  5
BCCC
330
BCAA
100
AcDbEntity
  8
0
100
AcDbLine
 10
34.01299894247915
 20
82.00000000000006
 30
0.0
 11
37.0129989424793
 21
82.00000000000009
 31
0.0
  0
LINE
  5
BCCD
330
BCAA
100
AcDbEntity
  8
0
100
AcDbLine
 10
-38.98700105732378
 20
87.00000000000017
 30
0.0
 11
-38.98700105732382
 21
82.0000000000002
 31
0.0
  0
LINE
  5
BCCE
330
BCAA
100
AcDbEntity
  8
0
100
AcDbLine
 10
-38.98700105732382
 20
82.0000000000002
 30
0.0
 11
-35.98700105732381
 21
82.00000000000024
 31
0.0
  0
LINE
  5
BCCF
330
BCAA
100
AcDbEntity
  8
0
100
AcDbLine
 10
-35.98700105732381
 20
82.00000000000024
 30
0.0
 11
-35.98700105732379
 21
87.0000000000002
 31
0.0
  0
LINE
  5
BCD0
330
BCAA
100
AcDbEntity
  8
0
100
AcDbLine
 10
-35.98700105732379
 20
87.0000000000002
 30
0.0
 11
-38.98700105732378
 21
87.00000000000017
 31
0.0
  0
LINE
  5
BCD1
330
BCAA
100
AcDbEntity
  8
0
100
AcDbLine
 10
34.01299894247915
 20
82.00000000000006
 30
0.0
 11
34.01299894247944
 21
2.999999999999971
 31
0.0
  0
LINE
  5
BCD2
330
BCAA
100
AcDbEntity
  8
0
100
AcDbLine
 10
37.01299894247944
 20
2.999999999999955
 30
0.0
 11
37.0129989424793
 21
82.00000000000009
 31
0.0
  0
LINE
  5
BCD3
330
BCAA
100
AcDbEntity
  8
0
100
AcDbLine
 10
-35.98700105732381
 20
82.00000000000024
 30
0.0
 11
-35.98700105732353
 21
3.000000000000033
 31
0.0
  0
LINE
  5
BCD4
330
BCAA
100
AcDbEntity
  8
0
100
AcDbLine
 10
-38.98700105732382
 20
82.0000000000002
 30
0.0
 11
-38.98700105732353
 21
3.000000000000024
 31
0.0
  0
ARC
  5
BCD5
330
BCAA
100
AcDbEntity
  8
0
100
AcDbCircle
 10
31.01299894247949
 20
2.999999999999948
 30
0.0
 40
5.99999999999997
100
AcDbArc
 50
269.9999999999989
 51
0.0
  0
ARC
  5
BCD6
330
BCAA
100
AcDbEntity
  8
0
100
AcDbCircle
 10
31.01299894247949
 20
2.999999999999948
 30
0.0
 40
2.999999999999952
100
AcDbArc
 50
269.9999999999977
 51
0.0
  0
ARC
  5
BCD7
330
BCAA
100
AcDbEntity
  8
0
100
AcDbCircle
 10
-32.98700105732349
 20
3.00000000000004
 30
0.0
 40
6.000000000000017
100
AcDbArc
 50
180.0
 51
270.0000000000001
  0
ARC
  5
BCD8
330
BCAA
100
AcDbEntity
  8
0
100
AcDbCircle
 10
-32.9870010573235
 20
3.00000000000004
 30
0.0
 40
3.000000000000016
100
AcDbArc
 50
180.0
 51
270.0000000000002
  0
SPLINE
  5
BCD9
330
BCAA
100
AcDbEntity
  8
0
100
AcDbSpline
210
0.0
220
0.0
230
1.0
 70
     8
 71
     3
 72
    14
 73
    10
 74
     0
 42
0.000000001
 43
0.0000000001
 40
-0.785398163397379
 40
-0.785398163397379
 40
-0.785398163397379
 40
-0.785398163397379
 40
0.3160919271552698
 40
0.3160919271552698
 40
0.3160919271552698
 40
1.299764733775543
 40
1.299764733775543
 40
1.299764733775543
 40
2.356194490192187
 40
2.356194490192187
 40
2.356194490192187
 40
2.356194490192187
 10
-8.510274194823587
 20
-5.999999999999915
 30
0.0
 10
-8.510274194823587
 20
-6.55074504527624
 30
0.0
 10
-8.534439768188793
 20
-7.088739243414091
 30
0.0
 10
-8.384088653944619
 20
-7.337823404552502
 30
0.0
 10
-8.249819354751149
 20
-7.560265093291387
 30
0.0
 10
-7.936034745095188
 20
-7.54788218658634
 30
0.0
 10
-7.594971916806937
 20
-7.305906800767737
 30
0.0
 10
-7.228682518354125
 20
-7.046033806232623
 30
0.0
 10
-6.899640295498543
 20
-6.528214878208345
 30
0.0
 10
-6.899640295498459
 20
-6.000000000000022
 30
0.0
  0
SPLINE
  5
BCDA
330
BCAA
100
AcDbEntity
  8
0
100
AcDbSpline
210
0.0
220
0.0
230
1.0
 70
     8
 71
     3
 72
    11
 73
     7
 74
     0
 42
0.000000001
 43
0.0000000001
 40
-0.2270812788504606
 40
-0.2270812788504606
 40
-0.2270812788504606
 40
-0.2270812788504606
 40
-0.0016311823990633
 40
-0.0016311823990633
 40
-0.0016311823990633
 40
0.7853981633974377
 40
0.7853981633974377
 40
0.7853981633974377
 40
0.7853981633974377
 10
3.487258469988923
 20
-7.269812748611342
 30
0.0
 10
3.501112174768349
 20
-7.21131167566245
 30
0.0
 10
3.51145031673826
 20
-7.14196741082207
 30
0.0
 10
3.518042952923423
 20
-7.062388890137471
 30
0.0
 10
3.541057350457741
 20
-6.784586254167628
 30
0.0
 10
3.536272079978708
 20
-6.393514672898231
 30
0.0
 10
3.536272079978707
 20
-5.999999999999979
 30
0.0
  0
LINE
  5
BCDB
330
BCAA
100
AcDbEntity
  8
0
100
AcDbLine
 10
3.489725805176493
 20
-197.937
 30
0.0
 11
3.536272079978747
 21
-197.937
 31
0.0
  0
LINE
  5
BCDC
330
BCAA
100
AcDbEntity
  8
0
100
AcDbLine
 10
3.489725805176417
 20
-197.9370000000001
 30
0.0
 11
-8.510274194823622
 21
-197.9370000000001
 31
0.0
  0
ARC
  5
BCDD
330
BCAA
100
AcDbEntity
  8
0
100
AcDbCircle
 10
12.24337886116551
 20
-3.999999999999949
 30
0.0
 40
1.0
100
AcDbArc
 50
90.0
 51
135.0
  0
ARC
  5
BCDE
330
BCAA
100
AcDbEntity
  8
0
100
AcDbCircle
 10
7.536272079979049
 20
-8.70710678118643
 30
0.0
 40
1.0
100
AcDbArc
 50
135.0
 51
180.0
  0
ARC
  5
BCDF
330
BCAA
100
AcDbEntity
  8
0
100
AcDbCircle
 10
-14.21738097601013
 20
-3.999999999999958
 30
0.0
 40
1.0
100
AcDbArc
 50
44.99999999999993
 51
90.00000000000039
  0
ARC
  5
BCE0
330
BCAA
100
AcDbEntity
  8
0
100
AcDbCircle
 10
-9.510274194823445
 20
-8.707106781186645
 30
0.0
 40
1.0
100
AcDbArc
 50
0.0
 51
45.00000000000003
  0
LINE
  5
BCE1
330
BCAA
100
AcDbEntity
  8
0
100
AcDbLine
 10
6.829165298792495
 20
-7.999999999999875
 30
0.0
 11
11.53627207997897
 21
-3.2928932188134
 31
0.0
  0
LINE
  5
BCE2
330
BCAA
100
AcDbEntity
  8
0
100
AcDbLine
 10
-8.803167413636895
 20
-8.000000000000099
 30
0.0
 11
-13.51027419482358
 21
-3.29289321881341
 31
0.0
  0
LINE
  5
BCE3
330
BCAA
100
AcDbEntity
  8
0
100
AcDbLine
 10
3.489725805176496
 20
-197.9370000000001
 30
0.0
 11
3.489725805176511
 21
0.0
 31
0.0
  0
ENDBLK
  5
BCAC
330
BCAA
100
AcDbEntity
  8
0
100
AcDbBlockEnd
  0
BLOCK
  5
BCE5
330
BCE4
100
AcDbEntity
  8
0
100
AcDbBlockBegin
  2
PBWS70-Top
 70
     0
 10
0.0
 20
0.0
 30
0.0
  3
PBWS70-Top
  1

  0
LINE
  5
BCE7
330
BCE4
100
AcDbEntity
  8
0
100
AcDbLine
 10
6.74899894281676
 20
3.536272079979027
 30
0.0
 11
9.699619020070233
 21
3.536272079979107
 31
0.0
  0
LINE
  5
BCE8
330
BCE4
100
AcDbEntity
  8
0
100
AcDbLine
 10
3.398378865563298
 20
3.536272079978937
 30
0.0
 11
6.748998942816756
 21
3.536272079979027
 31
0.0
  0
LINE
  5
BCE9
330
BCE4
100
AcDbEntity
  8
0
100
AcDbLine
 10
-8.723483493701465
 20
-5.510274194823435
 30
0.0
 11
-11.67410357095501
 21
-5.510274194823434
 31
0.0
  0
LINE
  5
BCEA
330
BCE4
100
AcDbEntity
  8
0
100
AcDbLine
 10
-5.372863416447859
 20
-5.510274194823434
 30
0.0
 11
-8.723483493701465
 21
-5.510274194823435
 31
0.0
  0
LINE
  5
BCEB
330
BCE4
100
AcDbEntity
  8
0
100
AcDbLine
 10
-5.251001057183404
 20
9.536272079978694
 30
0.0
 11
-5.251001057183239
 21
3.536272079978703
 31
0.0
  0
LINE
  5
BCEC
330
BCE4
100
AcDbEntity
  8
0
100
AcDbLine
 10
-5.251001057183274
 20
3.536272079978706
 30
0.0
 11
1.337311284732166
 21
3.53627207997889
 31
0.0
  0
LINE
  5
BCED
330
BCE4
100
AcDbEntity
  8
0
100
AcDbLine
 10
1.337311284732165
 20
3.53627207997889
 30
0.0
 11
3.398378865563296
 21
3.536272079978944
 31
0.0
  0
LINE
  5
BCEE
330
BCE4
100
AcDbEntity
  8
0
100
AcDbLine
 10
3.276516506298588
 20
-11.51027419482361
 30
0.0
 11
3.276516506298521
 21
-5.510274194823604
 31
0.0
  0
LINE
  5
BCEF
330
BCE4
100
AcDbEntity
  8
0
100
AcDbLine
 10
3.276516506298538
 20
-5.51027419482361
 30
0.0
 11
-3.311795835616861
 21
-5.510274194823683
 31
0.0
  0
LINE
  5
BCF0
330
BCE4
100
AcDbEntity
  8
0
100
AcDbLine
 10
-3.311795835616861
 20
-5.510274194823683
 30
0.0
 11
-5.37286341644786
 21
-5.510274194823705
 31
0.0
  0
LINE
  5
BCF1
330
BCE4
100
AcDbEntity
  8
0
100
AcDbLine
 10
18.30699894281604
 20
31.01299894247937
 30
0.0
 11
18.30699894281661
 21
9.536272079979347
 31
0.0
  0
LINE
  5
BCF2
330
BCE4
100
AcDbEntity
  8
0
100
AcDbLine
 10
9.699619020070235
 20
3.536272079979104
 30
0.0
 11
18.30699894281678
 21
3.536272079979343
 31
0.0
  0
LINE
  5
BCF3
330
BCE4
100
AcDbEntity
  8
0
100
AcDbLine
 10
18.30699894281677
 20
3.536272079979336
 30
0.0
 11
18.3069989428166
 21
9.536272079979347
 31
0.0
  0
LINE
  5
BCF4
330
BCE4
100
AcDbEntity
  8
0
100
AcDbLine
 10
-20.28100105718364
 20
17.25427207997829
 30
0.0
 11
-20.28100105718402
 21
31.01299894247831
 31
0.0
  0
LINE
  5
BCF5
330
BCE4
100
AcDbEntity
  8
0
100
AcDbLine
 10
-6.751001057183491
 20
12.25427207997866
 30
0.0
 11
-15.2810010571835
 21
12.25427207997841
 31
0.0
  0
LINE
  5
BCF6
330
BCE4
100
AcDbEntity
  8
0
100
AcDbLine
 10
-15.2810010571835
 20
12.25427207997841
 30
0.0
 11
-20.28100105718364
 21
17.25427207997829
 31
0.0
  0
LINE
  5
BCF7
330
BCE4
100
AcDbEntity
  8
0
100
AcDbLine
 10
13.30651650629861
 20
-14.22827419482349
 30
0.0
 11
18.30651650629867
 21
-19.22827419482343
 31
0.0
  0
ARC
  5
BCF8
330
BCE4
100
AcDbEntity
  8
0
100
AcDbCircle
 10
-6.751001057183461
 20
10.75427207997864
 30
0.0
 40
1.500000000000001
100
AcDbArc
 50
0.0
 51
90.0000000000011
  0
ARC
  5
BCF9
330
BCE4
100
AcDbEntity
  8
0
100
AcDbCircle
 10
4.7765165062986
 20
-12.72827419482359
 30
0.0
 40
1.5
100
AcDbArc
 50
180.0
 51
270.0000000000009
  0
LINE
  5
BCFA
330
BCE4
100
AcDbEntity
  8
0
100
AcDbLine
 10
-5.251001057183412
 20
9.536272079978694
 30
0.0
 11
-5.251001057183454
 21
10.75427207997869
 31
0.0
  0
LINE
  5
BCFB
330
BCE4
100
AcDbEntity
  8
0
100
AcDbLine
 10
3.276516506298581
 20
-11.51027419482361
 30
0.0
 11
3.276516506298581
 21
-12.72827419482361
 31
0.0
  0
LINE
  5
BCFC
330
BCE4
100
AcDbEntity
  8
0
100
AcDbLine
 10
-20.28148349370121
 20
-32.98700105732388
 30
0.0
 11
-20.28148349370145
 21
-11.51027419482388
 31
0.0
  0
LINE
  5
BCFD
330
BCE4
100
AcDbEntity
  8
0
100
AcDbLine
 10
-11.67410357095493
 20
-5.510274194823765
 30
0.0
 11
-20.28148349370152
 21
-5.510274194823852
 31
0.0
  0
LINE
  5
BCFE
330
BCE4
100
AcDbEntity
  8
0
100
AcDbLine
 10
-20.2814834937015
 20
-5.510274194823883
 30
0.0
 11
-20.28148349370144
 21
-11.51027419482387
 31
0.0
  0
LINE
  5
BCFF
330
BCE4
100
AcDbEntity
  8
0
100
AcDbLine
 10
18.30651650629867
 20
-19.22827419482343
 30
0.0
 11
18.30651650629884
 21
-32.98700105732348
 31
0.0
  0
LINE
  5
BD00
330
BCE4
100
AcDbEntity
  8
0
100
AcDbLine
 10
4.776516506298621
 20
-14.2282741948236
 30
0.0
 11
13.30651650629861
 21
-14.22827419482349
 31
0.0
  0
ARC
  5
BD01
330
BCE4
100
AcDbEntity
  8
0
100
AcDbCircle
 10
3.276516506298498
 20
-2.510274194823587
 30
0.0
 40
3.000000000000021
100
AcDbArc
 50
312.9825802798825
 51
154.0000000000022
  0
LINE
  5
BD02
330
BCE4
100
AcDbEntity
  8
0
100
AcDbLine
 10
5.321844428310591
 20
-4.704957245160914
 30
0.0
 11
7.367172350322657
 21
-6.899640295498223
 31
0.0
  0
ARC
  5
BD03
330
BCE4
100
AcDbEntity
  8
0
100
AcDbCircle
 10
3.276516506298498
 20
-2.510274194823587
 30
0.0
 40
6.000000000000048
100
AcDbArc
 50
312.9825802798824
 51
154.0000000000017
  0
LINE
  5
BD04
330
BCE4
100
AcDbEntity
  8
0
100
AcDbLine
 10
-2.116247771496602
 20
0.1199526859107272
 30
0.0
 11
-2.554618918285677
 21
-0.7788413603884712
 31
0.0
  0
LINE
  5
BD05
330
BCE4
100
AcDbEntity
  8
0
100
AcDbLine
 10
0.1417632206118715
 20
-2.093954800755652
 30
0.0
 11
0.5801343674009428
 21
-1.195160754456456
 31
0.0
  0
LINE
  5
BD06
330
BCE4
100
AcDbEntity
  8
0
100
AcDbLine
 10
-7.296328979195248
 20
2.730955130315995
 30
0.0
 11
-9.341656901207306
 21
4.925638180653302
 31
0.0
  0
ARC
  5
BD07
330
BCE4
100
AcDbEntity
  8
0
100
AcDbCircle
 10
-5.251001057183177
 20
0.5362720799787052
 30
0.0
 40
2.999999999999985
100
AcDbArc
 50
132.9825802798827
 51
334.000000000001
  0
ARC
  5
BD08
330
BCE4
100
AcDbEntity
  8
0
100
AcDbCircle
 10
-5.251001057183177
 20
0.5362720799787052
 30
0.0
 40
6.000000000000007
100
AcDbArc
 50
132.9825802798824
 51
334.0000000000011
  0
LINE
  5
BD09
330
BCE4
100
AcDbEntity
  8
0
100
AcDbLine
 10
18.30699894281592
 20
37.0129989424793
 30
0.0
 11
13.30699894281593
 21
37.01299894247918
 31
0.0
  0
LINE
  5
BD0A
330
BCE4
100
AcDbEntity
  8
0
100
AcDbLine
 10
13.30699894281593
 20
37.01299894247918
 30
0.0
 11
13.306998942816
 21
34.01299894247916
 31
0.0
  0
LINE
  5
BD0B
330
BCE4
100
AcDbEntity
  8
0
100
AcDbLine
 10
13.306998942816
 20
34.01299894247916
 30
0.0
 11
18.30699894281589
 21
34.01299894247915
 31
0.0
  0
LINE
  5
BD0C
330
BCE4
100
AcDbEntity
  8
0
100
AcDbLine
 10
18.30699894281589
 20
34.01299894247915
 30
0.0
 11
18.30699894281592
 21
37.0129989424793
 31
0.0
  0
LINE
  5
BD0D
330
BCE4
100
AcDbEntity
  8
0
100
AcDbLine
 10
-20.28100105718423
 20
34.01299894247838
 30
0.0
 11
-15.28100105718399
 21
34.01299894247844
 31
0.0
  0
LINE
  5
BD0E
330
BCE4
100
AcDbEntity
  8
0
100
AcDbLine
 10
13.30651650629881
 20
-38.98700105732378
 30
0.0
 11
18.30651650629875
 21
-38.98700105732382
 31
0.0
  0
LINE
  5
BD0F
330
BCE4
100
AcDbEntity
  8
0
100
AcDbLine
 10
18.30651650629875
 20
-38.98700105732382
 30
0.0
 11
18.30651650629873
 21
-35.98700105732381
 31
0.0
  0
LINE
  5
BD10
330
BCE4
100
AcDbEntity
  8
0
100
AcDbLine
 10
18.30651650629873
 20
-35.98700105732381
 30
0.0
 11
13.30651650629877
 21
-35.98700105732379
 31
0.0
  0
LINE
  5
BD11
330
BCE4
100
AcDbEntity
  8
0
100
AcDbLine
 10
13.30651650629877
 20
-35.98700105732379
 30
0.0
 11
13.30651650629881
 21
-38.98700105732378
 31
0.0
  0
LINE
  5
BD12
330
BCE4
100
AcDbEntity
  8
0
100
AcDbLine
 10
-15.28148349370128
 20
-38.98700105732404
 30
0.0
 11
-15.28148349370128
 21
-35.98700105732404
 31
0.0
  0
LINE
  5
BD13
330
BCE4
100
AcDbEntity
  8
0
100
AcDbLine
 10
-15.28148349370128
 20
-35.98700105732404
 30
0.0
 11
-20.28148349370133
 21
-35.98700105732406
 31
0.0
  0
LINE
  5
BD14
330
BCE4
100
AcDbEntity
  8
0
100
AcDbLine
 10
-20.28148349370127
 20
-38.98700105732407
 30
0.0
 11
-15.28148349370128
 21
-38.98700105732404
 31
0.0
  0
LINE
  5
BD15
330
BCE4
100
AcDbEntity
  8
0
100
AcDbLine
 10
-20.28148349370133
 20
-35.98700105732406
 30
0.0
 11
-20.28148349370127
 21
-38.98700105732407
 31
0.0
  0
LINE
  5
BD16
330
BCE4
100
AcDbEntity
  8
0
100
AcDbLine
 10
-15.2810010571841
 20
37.01299894247843
 30
0.0
 11
-20.28100105718429
 21
37.01299894247839
 31
0.0
  0
LINE
  5
BD17
330
BCE4
100
AcDbEntity
  8
0
100
AcDbLine
 10
-20.28100105718429
 20
37.01299894247839
 30
0.0
 11
-20.28100105718423
 21
34.01299894247838
 31
0.0
  0
LINE
  5
BD18
330
BCE4
100
AcDbEntity
  8
0
100
AcDbLine
 10
-15.28100105718399
 20
34.01299894247844
 30
0.0
 11
-15.2810010571841
 21
37.01299894247843
 31
0.0
  0
LINE
  5
BD19
330
BCE4
100
AcDbEntity
  8
0
100
AcDbLine
 10
13.306998942816
 20
34.01299894247916
 30
0.0
 11
-15.28100105718399
 21
34.01299894247844
 31
0.0
  0
LINE
  5
BD1A
330
BCE4
100
AcDbEntity
  8
0
100
AcDbLine
 10
-15.28148349370128
 20
-35.98700105732404
 30
0.0
 11
13.30651650629877
 21
-35.98700105732379
 31
0.0
  0
LINE
  5
BD1B
330
BCE4
100
AcDbEntity
  8
0
100
AcDbLine
 10
-15.28148349370128
 20
-38.98700105732404
 30
0.0
 11
13.30651650629881
 21
-38.98700105732378
 31
0.0
  0
LINE
  5
BD1C
330
BCE4
100
AcDbEntity
  8
0
100
AcDbLine
 10
13.30699894281593
 20
37.01299894247918
 30
0.0
 11
-15.2810010571841
 21
37.01299894247843
 31
0.0
  0
LINE
  5
BD1D
330
BCE4
100
AcDbEntity
  8
0
100
AcDbLine
 10
18.30699894281597
 20
34.01299894247944
 30
0.0
 11
18.30699894281605
 21
31.01299894247937
 31
0.0
  0
LINE
  5
BD1E
330
BCE4
100
AcDbEntity
  8
0
100
AcDbLine
 10
-20.28100105718412
 20
34.01299894247843
 30
0.0
 11
-20.28100105718405
 21
31.01299894247831
 31
0.0
  0
LINE
  5
BD1F
330
BCE4
100
AcDbEntity
  8
0
100
AcDbLine
 10
-20.28148349370124
 20
-35.98700105732385
 30
0.0
 11
-20.28148349370128
 21
-32.98700105732388
 31
0.0
  0
LINE
  5
BD20
330
BCE4
100
AcDbEntity
  8
0
100
AcDbLine
 10
18.30651650629883
 20
-35.98700105732351
 30
0.0
 11
18.30651650629882
 21
-32.98700105732349
 31
0.0
  0
SPLINE
  5
BD21
330
BCE4
100
AcDbEntity
  8
0
100
AcDbSpline
210
0.0
220
0.0
230
1.0
 70
     8
 71
     3
 72
    14
 73
    10
 74
     0
 42
0.000000001
 43
0.0000000001
 40
-0.7853981633974483
 40
-0.7853981633974483
 40
-0.7853981633974483
 40
-0.7853981633974483
 40
0.4440817313539145
 40
0.4440817313539145
 40
0.4440817313539145
 40
1.569165144395761
 40
1.569165144395761
 40
1.569165144395761
 40
2.356194490192126
 40
2.356194490192126
 40
2.356194490192126
 40
2.356194490192126
 10
5.321844428310479
 20
-4.704957245161034
 30
0.0
 10
5.321844428310479
 20
-4.704957245161034
 30
0.0
 10
5.097732956121777
 20
-4.933499239445765
 30
0.0
 10
4.716499143850775
 20
-5.142089158598269
 30
0.0
 10
4.367636311275903
 20
-5.33296747972257
 30
0.0
 10
3.903809848471322
 20
-5.459145256515725
 30
0.0
 10
3.606732286143142
 20
-5.49204506776838
 30
0.0
 10
3.398917686070259
 20
-5.515059465302687
 30
0.0
 10
3.276516506298429
 20
-5.510274194823647
 30
0.0
 10
3.276516506298363
 20
-5.510274194823647
 30
0.0
  0
SPLINE
  5
BD22
330
BCE4
100
AcDbEntity
  8
0
100
AcDbSpline
210
0.0
220
0.0
230
1.0
 70
     8
 71
     3
 72
    14
 73
    10
 74
     0
 42
0.000000001
 43
0.0000000001
 40
-0.785398163397379
 40
-0.785398163397379
 40
-0.785398163397379
 40
-0.785398163397379
 40
0.3160919271552698
 40
0.3160919271552698
 40
0.3160919271552698
 40
1.299764733775543
 40
1.299764733775543
 40
1.299764733775543
 40
2.356194490192187
 40
2.356194490192187
 40
2.356194490192187
 40
2.356194490192187
 10
3.276516506298134
 20
-8.510274194823587
 30
0.0
 10
3.276516506298192
 20
-8.510274194823587
 30
0.0
 10
3.779084263782365
 20
-8.534439768188793
 30
0.0
 10
4.500568670146388
 20
-8.384088653944619
 30
0.0
 10
5.144881857371505
 20
-8.249819354751149
 30
0.0
 10
5.917324802815197
 20
-7.936034745095188
 30
0.0
 10
6.461771453089619
 20
-7.594971916806937
 30
0.0
 10
7.046487873285731
 20
-7.228682518354125
 30
0.0
 10
7.367172350322225
 20
-6.899640295498543
 30
0.0
 10
7.367172350322316
 20
-6.899640295498459
 30
0.0
  0
SPLINE
  5
BD23
330
BCE4
100
AcDbEntity
  8
0
100
AcDbSpline
210
0.0
220
0.0
230
1.0
 70
     8
 71
     3
 72
    14
 73
    10
 74
     0
 42
0.000000001
 43
0.0000000001
 40
-2.356194490192281
 40
-2.356194490192281
 40
-2.356194490192281
 40
-2.356194490192281
 40
-1.126714595440924
 40
-1.126714595440924
 40
-1.126714595440924
 40
-0.0016311823990633
 40
-0.0016311823990633
 40
-0.0016311823990633
 40
0.7853981633974377
 40
0.7853981633974377
 40
0.7853981633974377
 40
0.7853981633974377
 10
-7.296328979195282
 20
2.730955130315978
 30
0.0
 10
-7.296328979195258
 20
2.730955130315996
 30
0.0
 10
-7.072217507006558
 20
2.959497124600748
 30
0.0
 10
-6.690983694735566
 20
3.168087043753268
 30
0.0
 10
-6.342120862160701
 20
3.358965364877586
 30
0.0
 10
-5.878294399356129
 20
3.485143141670756
 30
0.0
 10
-5.581216837027975
 20
3.518042952923423
 30
0.0
 10
-5.373402236955076
 20
3.541057350457741
 30
0.0
 10
-5.251001057183266
 20
3.536272079978708
 30
0.0
 10
-5.251001057183263
 20
3.536272079978707
 30
0.0
  0
SPLINE
  5
BD24
330
BCE4
100
AcDbEntity
  8
0
100
AcDbSpline
210
0.0
220
0.0
230
1.0
 70
     8
 71
     3
 72
    14
 73
    10
 74
     0
 42
0.000000001
 43
0.0000000001
 40
-0.7853981633974377
 40
-0.7853981633974377
 40
-0.7853981633974377
 40
-0.7853981633974377
 40
0.3160919271552168
 40
0.3160919271552168
 40
0.3160919271552168
 40
1.299764733775488
 40
1.299764733775488
 40
1.299764733775488
 40
2.356194490192299
 40
2.356194490192299
 40
2.356194490192299
 40
2.356194490192299
 10
-5.251001057183329
 20
6.536272079978736
 30
0.0
 10
-5.251001057183339
 20
6.536272079978743
 30
0.0
 10
-5.753568814667477
 20
6.560437653343914
 30
0.0
 10
-6.475053221031473
 20
6.410086539099691
 30
0.0
 10
-7.119366408256562
 20
6.275817239906185
 30
0.0
 10
-7.891809353700237
 20
5.962032630250178
 30
0.0
 10
-8.436256003974655
 20
5.620969801961878
 30
0.0
 10
-9.020972424170857
 20
5.254680403508961
 30
0.0
 10
-9.341656901207363
 20
4.925638180653296
 30
0.0
 10
-9.341656901207391
 20
4.925638180653271
 30
0.0
  0
ENDBLK
  5
BCE6
330
BCE4
100
AcDbEntity
  8
0
100
AcDbBlockEnd
  0
BLOCK
  5
BD26
330
BD25
100
AcDbEntity
  8
0
100
AcDbBlockBegin
  2
PBWS70-Bottom
 70
     0
 10
0.0
 20
0.0
 30
0.0
  3
PBWS70-Bottom
  1

  0
LINE
  5
BD28
330
BD25
100
AcDbEntity
  8
0
100
AcDbLine
 10
-5.251001057183424
 20
-9.536272079978715
 30
0.0
 11
-5.251001057183341
 21
-6.536272079978698
 31
0.0
  0
LINE
  5
BD29
330
BD25
100
AcDbEntity
  8
0
100
AcDbLine
 10
3.276516506298583
 20
11.51027419482361
 30
0.0
 11
3.276516506298552
 21
8.51027419482361
 31
0.0
  0
LINE
  5
BD2A
330
BD25
100
AcDbEntity
  8
0
100
AcDbLine
 10
-5.251001057183253
 20
-6.536272079978752
 30
0.0
 11
6.748998942816777
 21
-6.536272079979079
 31
0.0
  0
LINE
  5
BD2B
330
BD25
100
AcDbEntity
  8
0
100
AcDbLine
 10
-5.251001057183183
 20
-3.536272079978743
 30
0.0
 11
6.748998942816864
 21
-3.536272079979074
 31
0.0
  0
LINE
  5
BD2C
330
BD25
100
AcDbEntity
  8
0
100
AcDbLine
 10
6.748998942816864
 20
-3.536272079979074
 30
0.0
 11
6.748998942816777
 21
-6.536272079979079
 31
0.0
  0
LINE
  5
BD2D
330
BD25
100
AcDbEntity
  8
0
100
AcDbLine
 10
18.3069989428167
 20
-6.536272079979339
 30
0.0
 11
6.748998942816701
 21
-6.536272079978934
 31
0.0
  0
LINE
  5
BD2E
330
BD25
100
AcDbEntity
  8
0
100
AcDbLine
 10
6.748998942816798
 20
-3.536272079979062
 30
0.0
 11
18.30699894281678
 21
-3.536272079979343
 31
0.0
  0
LINE
  5
BD2F
330
BD25
100
AcDbEntity
  8
0
100
AcDbLine
 10
18.30699894281678
 20
-3.536272079979343
 30
0.0
 11
18.3069989428167
 21
-6.536272079979339
 31
0.0
  0
LINE
  5
BD30
330
BD25
100
AcDbEntity
  8
0
100
AcDbLine
 10
3.276516506298651
 20
8.510274194823621
 30
0.0
 11
-8.723483493701385
 21
8.510274194823736
 31
0.0
  0
LINE
  5
BD31
330
BD25
100
AcDbEntity
  8
0
100
AcDbLine
 10
3.27651650629862
 20
5.510274194823607
 30
0.0
 11
-8.723483493701412
 21
5.510274194823727
 31
0.0
  0
LINE
  5
BD32
330
BD25
100
AcDbEntity
  8
0
100
AcDbLine
 10
-8.72348349370141
 20
5.510274194823727
 30
0.0
 11
-8.723483493701383
 21
8.510274194823736
 31
0.0
  0
LINE
  5
BD33
330
BD25
100
AcDbEntity
  8
0
100
AcDbLine
 10
-20.28148349370147
 20
8.510274194823866
 30
0.0
 11
-8.723483493701444
 21
8.51027419482453
 31
0.0
  0
LINE
  5
BD34
330
BD25
100
AcDbEntity
  8
0
100
AcDbLine
 10
-8.723483493701479
 20
5.510274194824502
 30
0.0
 11
-20.28148349370152
 21
5.510274194823852
 31
0.0
  0
LINE
  5
BD35
330
BD25
100
AcDbEntity
  8
0
100
AcDbLine
 10
-20.28148349370152
 20
5.510274194823852
 30
0.0
 11
-20.28148349370147
 21
8.510274194823866
 31
0.0
  0
LINE
  5
BD36
330
BD25
100
AcDbEntity
  8
0
100
AcDbLine
 10
-20.28148349370149
 20
8.510274194823901
 30
0.0
 11
-20.28148349370146
 21
11.51027419482387
 31
0.0
  0
LINE
  5
BD37
330
BD25
100
AcDbEntity
  8
0
100
AcDbLine
 10
-20.28148349370145
 20
11.51027419482387
 30
0.0
 11
-20.2814834937012
 21
32.98700105732387
 31
0.0
  0
LINE
  5
BD38
330
BD25
100
AcDbEntity
  8
0
100
AcDbLine
 10
18.30699894281669
 20
-6.536272079979335
 30
0.0
 11
18.3069989428166
 21
-9.53627207997934
 31
0.0
  0
LINE
  5
BD39
330
BD25
100
AcDbEntity
  8
0
100
AcDbLine
 10
18.30699894281661
 20
-9.536272079979339
 30
0.0
 11
18.30699894281604
 21
-31.01299894247937
 31
0.0
  0
LINE
  5
BD3A
330
BD25
100
AcDbEntity
  8
0
100
AcDbLine
 10
18.30651650629868
 20
19.22827419482343
 30
0.0
 11
13.30651650629862
 21
14.22827419482349
 31
0.0
  0
LINE
  5
BD3B
330
BD25
100
AcDbEntity
  8
0
100
AcDbLine
 10
-20.28100105718364
 20
-17.2542720799783
 30
0.0
 11
-15.28100105718349
 21
-12.25427207997842
 31
0.0
  0
LINE
  5
BD3C
330
BD25
100
AcDbEntity
  8
0
100
AcDbLine
 10
3.276516506298588
 20
12.72827419482361
 30
0.0
 11
3.276516506298581
 21
11.51027419482361
 31
0.0
  0
LINE
  5
BD3D
330
BD25
100
AcDbEntity
  8
0
100
AcDbLine
 10
-5.251001057183457
 20
-10.7542720799787
 30
0.0
 11
-5.251001057183417
 21
-9.536272079978717
 31
0.0
  0
ARC
  5
BD3E
330
BD25
100
AcDbEntity
  8
0
100
AcDbCircle
 10
4.776516506298602
 20
12.72827419482359
 30
0.0
 40
1.5
100
AcDbArc
 50
89.99999999999921
 51
180.0
  0
ARC
  5
BD3F
330
BD25
100
AcDbEntity
  8
0
100
AcDbCircle
 10
-6.751001057183453
 20
-10.75427207997866
 30
0.0
 40
1.500000000000001
100
AcDbArc
 50
269.9999999999982
 51
0.0
  0
LINE
  5
BD40
330
BD25
100
AcDbEntity
  8
0
100
AcDbLine
 10
4.776516506298621
 20
14.22827419482359
 30
0.0
 11
13.30651650629862
 21
14.22827419482349
 31
0.0
  0
LINE
  5
BD41
330
BD25
100
AcDbEntity
  8
0
100
AcDbLine
 10
18.30651650629884
 20
32.98700105732349
 30
0.0
 11
18.30651650629868
 21
19.22827419482343
 31
0.0
  0
LINE
  5
BD42
330
BD25
100
AcDbEntity
  8
0
100
AcDbLine
 10
-6.751001057183501
 20
-12.25427207997866
 30
0.0
 11
-15.28100105718349
 21
-12.25427207997842
 31
0.0
  0
LINE
  5
BD43
330
BD25
100
AcDbEntity
  8
0
100
AcDbLine
 10
-20.28100105718402
 20
-31.01299894247831
 30
0.0
 11
-20.28100105718364
 21
-17.2542720799783
 31
0.0
  0
LINE
  5
BD44
330
BD25
100
AcDbEntity
  8
0
100
AcDbLine
 10
18.30699894281589
 20
-37.01299894247944
 30
0.0
 11
-20.28100105718423
 21
-37.01299894247843
 31
0.0
  0
LINE
  5
BD45
330
BD25
100
AcDbEntity
  8
0
100
AcDbLine
 10
18.30699894281589
 20
-37.01299894247946
 30
0.0
 11
18.30699894281604
 21
-31.01299894247937
 31
0.0
  0
LINE
  5
BD46
330
BD25
100
AcDbEntity
  8
0
100
AcDbLine
 10
-20.28100105718407
 20
-31.01299894247832
 30
0.0
 11
-20.28100105718422
 21
-37.01299894247843
 31
0.0
  0
LINE
  5
BD47
330
BD25
100
AcDbEntity
  8
0
100
AcDbLine
 10
-20.28148349370115
 20
38.98700105732388
 30
0.0
 11
18.30651650629885
 21
38.98700105732353
 31
0.0
  0
LINE
  5
BD48
330
BD25
100
AcDbEntity
  8
0
100
AcDbLine
 10
-20.28148349370119
 20
38.98700105732387
 30
0.0
 11
-20.28148349370123
 21
32.98700105732387
 31
0.0
  0
LINE
  5
BD49
330
BD25
100
AcDbEntity
  8
0
100
AcDbLine
 10
18.30651650629881
 20
32.98700105732348
 30
0.0
 11
18.30651650629885
 21
38.98700105732351
 31
0.0
  0
LINE
  5
BD4A
330
BD25
100
AcDbEntity
  8
0
100
AcDbLine
 10
0.1417632206120131
 20
2.093954800755585
 30
0.0
 11
0.5801343674010445
 21
1.195160754456413
 31
0.0
  0
LINE
  5
BD4B
330
BD25
100
AcDbEntity
  8
0
100
AcDbLine
 10
-2.55461891828554
 20
0.7788413603884315
 30
0.0
 11
-2.116247771496484
 21
-0.1199526859107569
 31
0.0
  0
ARC
  5
BD4C
330
BD25
100
AcDbEntity
  8
0
100
AcDbCircle
 10
-5.251001057183065
 20
-0.5362720799787424
 30
0.0
 40
6.000000000000004
100
AcDbArc
 50
25.99999999999853
 51
269.9999999999982
  0
ARC
  5
BD4D
330
BD25
100
AcDbEntity
  8
0
100
AcDbCircle
 10
-5.251001057183065
 20
-0.5362720799787424
 30
0.0
 40
3.000000000000004
100
AcDbArc
 50
25.99999999999878
 51
269.9999999999978
  0
ARC
  5
BD4E
330
BD25
100
AcDbEntity
  8
0
100
AcDbCircle
 10
3.276516506298586
 20
2.510274194823602
 30
0.0
 40
6.000000000000021
100
AcDbArc
 50
205.9999999999988
 51
89.99999999999936
  0
ARC
  5
BD4F
330
BD25
100
AcDbEntity
  8
0
100
AcDbCircle
 10
3.276516506298586
 20
2.510274194823602
 30
0.0
 40
3.000000000000016
100
AcDbArc
 50
205.9999999999989
 51
89.99999999999936
  0
ENDBLK
  5
BD27
330
BD25
100
AcDbEntity
  8
0
100
AcDbBlockEnd
  0
BLOCK
  5
BD51
330
BD50
100
AcDbEntity
  8
0
100
AcDbBlockBegin
  2
PBWS70-ISO
 70
     0
 10
0.0
 20
0.0
 30
0.0
  3
PBWS70-ISO
  1

  0
LINE
  5
BD53
330
BD50
100
AcDbEntity
  8
0
100
AcDbLine
 10
10.79010607850102
 20
-116.4119869948352
 30
0.0
 11
10.79010607850088
 21
4.378067697869703
 31
0.0
  0
ELLIPSE
  5
BD54
330
BD50
100
AcDbEntity
  8
0
100
AcDbEllipse
 10
8.52736437870404
 20
41.19004579010007
 30
0.0
 11
-1.787816710194969
 21
6.67222279706948
 31
0.0
210
0.0
220
0.0
230
1.0
 40
0.5176380902050575
 41
2.511757249801151
 42
2.700305999688676
  0
LINE
  5
BD55
330
BD50
100
AcDbEntity
  8
0
100
AcDbLine
 10
7.937815982857055
 20
-117.2147062830915
 30
0.0
 11
8.66878573494144
 21
-117.6367318662268
 31
0.0
  0
LINE
  5
BD56
330
BD50
100
AcDbEntity
  8
0
100
AcDbLine
 10
8.668785734941398
 20
3.153322826478124
 30
0.0
 11
8.66878573494144
 21
-117.6367318662268
 31
0.0
  0
LINE
  5
BD57
330
BD50
100
AcDbEntity
  8
0
100
AcDbLine
 10
8.66878573494144
 20
-117.6367318662268
 30
0.0
 11
10.79010607850102
 21
-116.4119869948352
 31
0.0
  0
LINE
  5
BD58
330
BD50
100
AcDbEntity
  8
0
100
AcDbLine
 10
18.96284625545529
 20
35.58538351750851
 30
0.0
 11
10.79010607850088
 21
4.378067697869703
 31
0.0
  0
LINE
  5
BD59
330
BD50
100
AcDbEntity
  8
0
100
AcDbLine
 10
8.668785734941398
 20
3.153322826478124
 30
0.0
 11
16.8415259118957
 21
34.36063864611689
 31
0.0
  0
LINE
  5
BD5A
330
BD50
100
AcDbEntity
  8
0
100
AcDbLine
 10
16.8415259118957
 20
34.36063864611689
 30
0.0
 11
18.96284625545529
 21
35.58538351750851
 31
0.0
  0
LINE
  5
BD5B
330
BD50
100
AcDbEntity
  8
0
100
AcDbLine
 10
10.79010607850088
 20
4.378067697869703
 30
0.0
 11
8.668785734941398
 21
3.153322826478124
 31
0.0
  0
ELLIPSE
  5
BD5C
330
BD50
100
AcDbEntity
  8
0
100
AcDbEllipse
 10
11.46229598145903
 20
38.28283507541492
 30
0.0
 11
-0.8337956473795104
 21
0.5520732002289009
 31
0.0
210
0.0
220
0.0
230
1.0
 40
0.784660091351282
 41
0.0779983288728211
 42
1.198023075403806
  0
SPLINE
  5
BD5D
330
BD50
100
AcDbEntity
  8
0
100
AcDbSpline
210
0.0
220
0.0
230
1.0
 70
     8
 71
     3
 72
    18
 73
    14
 74
     0
 42
0.000000001
 43
0.0000000001
 40
-0.8068545796853655
 40
-0.8068545796853655
 40
-0.8068545796853655
 40
-0.8068545796853655
 40
-0.6777094229505419
 40
-0.6777094229505419
 40
-0.4996954415939476
 40
-0.4996954415939476
 40
-0.3131469925253231
 40
-0.3131469925253231
 40
-0.1900102218698252
 40
-0.1900102218698252
 40
-0.0730808545653174
 40
-0.0730808545653174
 40
0.0
 40
0.0
 40
0.0
 40
0.0
 10
10.75518920027251
 20
37.87458678495104
 30
0.0
 10
10.90252000213431
 20
38.15861537029727
 30
0.0
 10
11.04431789325484
 20
38.52117558614435
 30
0.0
 10
11.41922572886985
 20
39.48254966784519
 30
0.0
 10
11.66881706654043
 20
40.11508691029035
 30
0.0
 10
12.29076014615307
 20
41.40633118008936
 30
0.0
 10
12.66908227537459
 20
42.06571503857261
 30
0.0
 10
13.35192112629919
 20
43.07683359499583
 30
0.0
 10
13.63679470601835
 20
43.4577326806764
 30
0.0
 10
14.17494263009267
 20
44.1443695176089
 30
0.0
 10
14.4287762901687
 20
44.45280114203485
 30
0.0
 10
14.7801183212468
 20
44.90697099615561
 30
0.0
 10
14.90032252451959
 20
45.07049067802968
 30
0.0
 10
14.9978298873917
 20
45.22305601330066
 30
0.0
  0
ELLIPSE
  5
BD5E
330
BD50
100
AcDbEntity
  8
0
100
AcDbEllipse
 10
14.99782988739169
 20
44.40655943237294
 30
0.0
 11
-0.8950072398365712
 21
0.4460516120810742
 31
0.0
210
0.0
220
0.0
230
1.0
 40
0.784660091351292
 41
5.085162231775788
 42
6.205186978306777
  0
ELLIPSE
  5
BD5F
330
BD50
100
AcDbEntity
  8
0
100
AcDbEllipse
 10
9.375892516127882
 20
37.72011596553058
 30
0.0
 11
-0.4440557184830127
 21
-0.8959991734831717
 31
0.0
210
0.0
220
0.0
230
1.0
 40
0.6166825867284861
 41
4.673210178914487
 42
5.459858343614024
  0
ELLIPSE
  5
BD60
330
BD50
100
AcDbEntity
  8
0
100
AcDbEllipse
 10
8.527364378704039
 20
42.00654237102779
 30
0.0
 11
1.300230334687509
 21
-4.852525670595918
 31
0.0
210
0.0
220
0.0
230
0.9999999999999998
 40
0.5176380902050573
 41
5.855547854923099
 42
6.712520614354345
  0
ELLIPSE
  5
BD61
330
BD50
100
AcDbEntity
  8
0
100
AcDbEllipse
 10
8.527364378704039
 20
42.00654237102779
 30
0.0
 11
1.300230334687509
 21
-4.852525670595918
 31
0.0
210
0.0
220
0.0
230
0.9999999999999998
 40
0.5176380902050573
 41
5.595550581745668
 42
5.855547854923098
  0
ELLIPSE
  5
BD62
330
BD50
100
AcDbEntity
  8
0
100
AcDbEllipse
 10
10.54218024425472
 20
46.97902995325257
 30
0.0
 11
-0.1638799131656946
 21
0.9864802958299796
 31
0.0
210
0.0
220
0.0
230
1.0
 40
0.2257768980814044
 41
4.528811736611196
 42
5.648836483142186
  0
SPLINE
  5
BD63
330
BD50
100
AcDbEntity
  8
0
100
AcDbSpline
210
0.0
220
0.0
230
1.0
 70
     8
 71
     3
 72
    12
 73
     8
 74
     0
 42
0.000000001
 43
0.0000000001
 40
-0.8068546120429132
 40
-0.8068546120429132
 40
-0.8068546120429132
 40
-0.8068546120429132
 40
-0.6784472535904664
 40
-0.6784472535904664
 40
-0.5004982556602955
 40
-0.5004982556602955
 40
-0.392964736848463
 40
-0.392964736848463
 40
-0.392964736848463
 40
-0.392964736848463
 10
10.54218024425472
 20
47.7955265341803
 30
0.0
 10
10.07787585425626
 20
47.69661132394531
 30
0.0
 10
9.629157199277058
 20
47.51422744930931
 30
0.0
 10
8.637930683920934
 20
46.91312486279122
 30
0.0
 10
8.124413667957176
 20
46.43377302032249
 30
0.0
 10
7.418228710196924
 20
45.54959226379806
 30
0.0
 10
7.178082852330227
 20
45.19045035266509
 30
0.0
 10
6.969032703207177
 20
44.81455725976584
 30
0.0
  0
ELLIPSE
  5
BD64
330
BD50
100
AcDbEntity
  8
0
100
AcDbEllipse
 10
10.30553897175598
 20
45.08643111092197
 30
0.0
 11
-4.852525670595818
 21
-1.300230334687758
 31
0.0
210
0.0
220
0.0
230
0.9999999999999998
 40
0.5176380902050497
 41
2.712257346414517
 42
4.526244578888837
  0
SPLINE
  5
BD65
330
BD50
100
AcDbEntity
  8
0
100
AcDbSpline
210
0.0
220
0.0
230
1.0
 70
     8
 71
     3
 72
    10
 73
     6
 74
     0
 42
0.000000001
 43
0.0000000001
 40
0.6578990118991407
 40
0.6578990118991407
 40
0.6578990118991407
 40
0.6578990118991407
 40
0.6777094229505389
 40
0.6777094229505389
 40
0.7732860835194109
 40
0.7732860835194109
 40
0.7732860835194109
 40
0.7732860835194109
 10
-11.10605644893053
 20
43.72987423862167
 30
0.0
 10
-11.08213483122067
 20
43.68902079170398
 30
0.0
 10
-11.05849856137452
 20
43.64745324540925
 30
0.0
 10
-10.92239363209865
 20
43.40131586226392
 30
0.0
 10
-10.81546780116722
 20
43.18121266952654
 30
0.0
 10
-10.70921281647136
 20
42.95340914370477
 30
0.0
  0
ELLIPSE
  5
BD66
330
BD50
100
AcDbEntity
  8
0
100
AcDbEllipse
 10
-10.54218024425496
 20
41.9676580832712
 30
0.0
 11
-0.1638799131656694
 21
0.9864802958299836
 31
0.0
210
0.0
220
0.0
230
1.0
 40
0.2257768980813705
 41
5.648836483142223
 42
6.283185307179602
  0
SPLINE
  5
BD67
330
BD50
100
AcDbEntity
  8
0
100
AcDbSpline
210
0.0
220
0.0
230
1.0
 70
     8
 71
     3
 72
    12
 73
     8
 74
     0
 42
0.000000001
 43
0.0000000001
 40
-0.8068546120429022
 40
-0.8068546120429022
 40
-0.8068546120429022
 40
-0.8068546120429022
 40
-0.6784472535904654
 40
-0.6784472535904654
 40
-0.5004982556602961
 40
-0.5004982556602961
 40
-0.403425988212407
 40
-0.403425988212407
 40
-0.403425988212407
 40
-0.403425988212407
 10
-10.54218024425496
 20
42.78415466419893
 30
0.0
 10
-10.07787585425653
 20
42.8830698744339
 30
0.0
 10
-9.629157199277356
 20
42.97931261823292
 30
0.0
 10
-8.637930683921231
 20
43.12029405899898
 30
0.0
 10
-8.124413667957467
 20
43.12917374916823
 30
0.0
 10
-7.444106226049553
 20
42.98099281195862
 30
0.0
 10
-7.225052068352262
 20
42.8977441604007
 30
0.0
 10
-7.030922230988243
 20
42.78568963488345
 30
0.0
  0
ELLIPSE
  5
BD68
330
BD50
100
AcDbEntity
  8
0
100
AcDbEllipse
 10
-10.30553897175597
 20
45.49325008745725
 30
0.0
 11
4.852525670595861
 21
1.300230334687734
 31
0.0
210
0.0
220
0.0
230
1.0
 40
0.5176380902050408
 41
4.410440388424829
 42
4.526244578888797
  0
SPLINE
  5
BD69
330
BD50
100
AcDbEntity
  8
0
100
AcDbSpline
210
0.0
220
0.0
230
1.0
 70
     8
 71
     3
 72
    20
 73
    16
 74
     0
 42
0.000000001
 43
0.0000000001
 40
0.0252297526444622
 40
0.0252297526444622
 40
0.0252297526444622
 40
0.0252297526444622
 40
0.0849947518121649
 40
0.0849947518121649
 40
0.1677016658694275
 40
0.1677016658694275
 40
0.2862958373753834
 40
0.2862958373753834
 40
0.4375746863367742
 40
0.4375746863367742
 40
0.5888535352981651
 40
0.5888535352981651
 40
0.7261017491025123
 40
0.7261017491025123
 40
0.7816239974514164
 40
0.7816239974514164
 40
0.7816239974514164
 40
0.7816239974514164
 10
14.05475548903315
 20
44.76376802649482
 30
0.0
 10
14.00917034851703
 20
44.68481224705074
 30
0.0
 10
13.94539444957421
 20
44.58658206269736
 30
0.0
 10
13.76040945012922
 20
44.32187419518957
 30
0.0
 10
13.62703627432634
 20
44.14364796319803
 30
0.0
 10
13.2719466220005
 20
43.66970229974166
 30
0.0
 10
13.03788935778313
 20
43.356129790412
 30
0.0
 10
12.51154252347056
 20
42.59238226823959
 30
0.0
 10
12.22153487468986
 20
42.12699727935677
 30
0.0
 10
11.70546159815475
 20
41.17943233811513
 30
0.0
 10
11.47883975490594
 20
40.69637316338923
 30
0.0
 10
11.10797973471611
 20
39.84904039193682
 30
0.0
 10
10.95560449613489
 20
39.47683646519514
 30
0.0
 10
10.77269723260829
 20
39.08955238449052
 30
0.0
 10
10.72375338704799
 20
38.99430314573759
 30
0.0
 10
10.68140706532008
 20
38.92095716499119
 30
0.0
  0
SPLINE
  5
BD6A
330
BD50
100
AcDbEntity
  8
0
100
AcDbSpline
210
0.0
220
0.0
230
1.0
 70
     8
 71
     3
 72
    12
 73
     8
 74
     0
 42
0.000000001
 43
0.0000000001
 40
0.6427113584588941
 40
0.6427113584588941
 40
0.6427113584588941
 40
0.6427113584588941
 40
0.6454831591991491
 40
0.6454831591991491
 40
0.7261688694422558
 40
0.7261688694422558
 40
0.7927181233992609
 40
0.7927181233992609
 40
0.7927181233992609
 40
0.7927181233992609
 10
-11.10598967231268
 20
44.29479229587359
 30
0.0
 10
-11.10225947507255
 20
44.28702787677823
 30
0.0
 10
-11.09854239313295
 20
44.27925377760042
 30
0.0
 10
-10.98700998503935
 20
44.04489348529076
 30
0.0
 10
-10.88999495778791
 20
43.81005920118346
 30
0.0
 10
-10.7207683969815
 20
43.37445927599087
 30
0.0
 10
-10.64710502471604
 20
43.17475273377462
 30
0.0
 10
-10.57319891804465
 20
42.97639030091038
 30
0.0
  0
SPLINE
  5
BD6B
330
BD50
100
AcDbEntity
  8
0
100
AcDbSpline
210
0.0
220
0.0
230
1.0
 70
     8
 71
     3
 72
    16
 73
    12
 74
     0
 42
0.000000001
 43
0.0000000001
 40
0.4034259882124072
 40
0.4034259882124072
 40
0.4034259882124072
 40
0.4034259882124072
 40
0.4841117129785062
 40
0.4841117129785062
 40
0.5647974377446051
 40
0.5647974377446051
 40
0.6454831625107042
 40
0.6454831625107042
 40
0.7261688872768032
 40
0.7261688872768032
 40
0.8068546120429022
 40
0.8068546120429022
 40
0.8068546120429022
 40
0.8068546120429022
 10
-7.031392278297516
 20
42.78642403169489
 30
0.0
 10
-7.246561068853085
 20
42.91065179084334
 30
0.0
 10
-7.478070758636605
 20
43.00380274106603
 30
0.0
 10
-7.954393465841706
 20
43.13282722026353
 30
0.0
 10
-8.199049537180826
 20
43.16898304881992
 30
0.0
 10
-8.692064590086911
 20
43.19853108887797
 30
0.0
 10
-8.940672159020635
 20
43.1920837957507
 30
0.0
 10
-9.440942909669317
 20
43.15227095196756
 30
0.0
 10
-9.692824723472126
 20
43.11887100980684
 30
0.0
 10
-10.19902177027999
 20
43.04078512839668
 30
0.0
 10
-10.45362973638094
 20
42.99607360644961
 30
0.0
 10
-10.70606015742063
 20
42.95413837910118
 30
0.0
  0
SPLINE
  5
BD6C
330
BD50
100
AcDbEntity
  8
0
100
AcDbSpline
210
0.0
220
0.0
230
1.0
 70
     8
 71
     3
 72
     8
 73
     4
 74
     0
 42
0.000000001
 43
0.0000000001
 40
-0.9069936162369954
 40
-0.9069936162369954
 40
-0.9069936162369954
 40
-0.9069936162369954
 40
-0.8148854768791361
 40
-0.8148854768791361
 40
-0.8148854768791361
 40
-0.8148854768791361
 10
-10.70606015742063
 20
42.95413837910118
 30
0.0
 10
-10.84021529522365
 20
42.93185173797229
 30
0.0
 10
-10.97376935602531
 20
42.9130540901276
 30
0.0
 10
-11.10598967231268
 20
42.89778210360388
 30
0.0
  0
SPLINE
  5
BD6D
330
BD50
100
AcDbEntity
  8
0
100
AcDbSpline
210
0.0
220
0.0
230
1.0
 70
     8
 71
     3
 72
     8
 73
     4
 74
     0
 42
0.000000001
 43
0.0000000001
 40
0.0
 40
0.0
 40
0.0
 40
0.0
 40
0.0252297526444622
 40
0.0252297526444622
 40
0.0252297526444622
 40
0.0252297526444622
 10
14.13281542024116
 20
44.9059757678352
 30
0.0
 10
14.10886945887314
 20
44.85971322033599
 30
0.0
 10
14.08277126335114
 20
44.81230378377744
 30
0.0
 10
14.05474527301863
 20
44.76376459917189
 30
0.0
  0
SPLINE
  5
BD6E
330
BD50
100
AcDbEntity
  8
0
100
AcDbSpline
210
0.0
220
0.0
230
1.0
 70
     8
 71
     3
 72
     8
 73
     4
 74
     0
 42
0.000000001
 43
0.0000000001
 40
0.7816239974514164
 40
0.7816239974514164
 40
0.7816239974514164
 40
0.7816239974514164
 40
0.8068545796853655
 40
0.8068545796853655
 40
0.8068545796853655
 40
0.8068545796853655
 10
10.68141631191101
 20
38.92098148091372
 30
0.0
 10
10.65338740724667
 20
38.87243433870961
 30
0.0
 10
10.62537399869233
 20
38.82612193796628
 30
0.0
 10
10.59728151430852
 20
38.78225141087717
 30
0.0
  0
ELLIPSE
  5
BD6F
330
BD50
100
AcDbEntity
  8
0
100
AcDbEllipse
 10
9.234471159890567
 20
42.41479066149167
 30
0.0
 11
0.1256039641371314
 21
-4.499590091588685
 31
0.0
210
0.0
220
0.0
230
1.0
 40
0.4835611851232689
 41
6.044065798986698
 42
6.901038558417944
  0
ELLIPSE
  5
BD70
330
BD50
100
AcDbEntity
  8
0
100
AcDbEllipse
 10
9.234471159890567
 20
42.41479066149167
 30
0.0
 11
0.1256039641371314
 21
-4.499590091588685
 31
0.0
210
0.0
220
0.0
230
1.0
 40
0.4835611851232689
 41
5.588323596500536
 42
6.044065798986697
  0
SPLINE
  5
BD71
330
BD50
100
AcDbEntity
  8
0
100
AcDbSpline
210
0.0
220
0.0
230
1.0
 70
     8
 71
     3
 72
    12
 73
     8
 74
     0
 42
0.000000001
 43
0.0000000001
 40
0.3362264041805363
 40
0.3362264041805363
 40
0.3362264041805363
 40
0.3362264041805363
 40
0.5004982556602955
 40
0.5004982556602955
 40
0.6784472535904664
 40
0.6784472535904664
 40
0.8068546120429132
 40
0.8068546120429132
 40
0.8068546120429132
 40
0.8068546120429132
 10
7.779274251111955
 20
43.71823068043312
 30
0.0
 10
8.012113887035987
 20
44.20997298105342
 30
0.0
 10
8.298164684729671
 20
44.6860237217677
 30
0.0
 10
8.972474982579518
 20
45.58725662736174
 30
0.0
 10
9.369080101345726
 20
46.00480241350414
 30
0.0
 10
10.1162342885969
 20
46.55125564402424
 30
0.0
 10
10.44947104705383
 20
46.72673773755744
 30
0.0
 10
10.79107818788843
 20
46.83532865849492
 30
0.0
  0
ELLIPSE
  5
BD72
330
BD50
100
AcDbEntity
  8
0
100
AcDbEllipse
 10
10.30553897175598
 20
44.26993452999425
 30
0.0
 11
3.95956130800104
 21
2.141018822035613
 31
0.0
210
0.0
220
0.0
230
1.0
 40
0.4835611851232671
 41
5.665332055941239
 42
7.479319288415274
  0
LINE
  5
BD73
330
BD50
100
AcDbEntity
  8
0
100
AcDbLine
 10
4.426145047821711
 20
51.32662110121393
 30
0.0
 11
10.54218024425473
 21
47.7955265341803
 31
0.0
  0
ELLIPSE
  5
BD74
330
BD50
100
AcDbEntity
  8
0
100
AcDbEllipse
 10
4.426145047821733
 20
46.42764161564756
 30
0.0
 11
2.999999999999883
 21
5.196152422706711
 31
0.0
210
0.0
220
0.0
230
1.0
 40
0.5773502691896108
 41
0.7853981633974377
 42
1.915351184662519
  0
LINE
  5
BD75
330
BD50
100
AcDbEntity
  8
0
100
AcDbLine
 10
14.99782988739169
 20
45.22305601330066
 30
0.0
 11
21.08416659901488
 21
41.7091078744665
 31
0.0
  0
LINE
  5
BD76
330
BD50
100
AcDbEntity
  8
0
100
AcDbLine
 10
-4.426145047821971
 20
39.25306009716521
 30
0.0
 11
-10.54218024425496
 21
42.78415466419894
 31
0.0
  0
ELLIPSE
  5
BD77
330
BD50
100
AcDbEntity
  8
0
100
AcDbEllipse
 10
-4.426145047821972
 20
34.35408061159885
 30
0.0
 11
2.999999999999957
 21
5.196152422706676
 31
0.0
210
0.0
220
0.0
230
1.0
 40
0.5773502691896193
 41
5.497787143782133
 42
7.068583470577027
  0
ELLIPSE
  5
BD78
330
BD50
100
AcDbEntity
  8
0
100
AcDbEllipse
 10
-4.426145047821973
 20
34.35408061159885
 30
0.0
 11
1.499999999999981
 21
2.598076211353339
 31
0.0
210
0.0
220
0.0
230
0.9999999999999998
 40
0.5773502691896199
 41
5.596852011188492
 42
6.969518603170678
  0
LINE
  5
BD79
330
BD50
100
AcDbEntity
  8
0
100
AcDbLine
 10
-4.42614504782197
 20
37.03382239020372
 30
0.0
 11
-4.426145047821971
 21
39.25306009716521
 31
0.0
  0
LINE
  5
BD7A
330
BD50
100
AcDbEntity
  8
0
100
AcDbLine
 10
-7.031392278297516
 20
42.78642403169489
 30
0.0
 11
-1.42614504782201
 21
39.55023303430552
 31
0.0
  0
LINE
  5
BD7B
330
BD50
100
AcDbEntity
  8
0
100
AcDbLine
 10
36.27050580117951
 20
50.47694490084169
 30
0.0
 11
21.08416659901488
 21
41.7091078744665
 31
0.0
  0
LINE
  5
BD7C
330
BD50
100
AcDbEntity
  8
0
100
AcDbLine
 10
10.75518920027251
 20
37.87458678495104
 30
0.0
 11
16.8415259118957
 21
34.36063864611689
 31
0.0
  0
ELLIPSE
  5
BD7D
330
BD50
100
AcDbEntity
  8
0
100
AcDbEllipse
 10
21.08416659901487
 20
36.81012838890015
 30
0.0
 11
-2.999999999999571
 21
-5.196152422706893
 31
0.0
210
0.0
220
0.0
230
1.0
 40
0.5773502691896103
 41
3.926990816986986
 42
5.497787143781884
  0
ELLIPSE
  5
BD7E
330
BD50
100
AcDbEntity
  8
0
100
AcDbEllipse
 10
21.08416659901487
 20
36.81012838890015
 30
0.0
 11
1.500000000000098
 21
2.598076211353269
 31
0.0
210
0.0
220
0.0
230
1.0
 40
0.5773502691896106
 41
0.7853981633976757
 42
2.356194490192574
  0
LINE
  5
BD7F
330
BD50
100
AcDbEntity
  8
0
100
AcDbLine
 10
8.66878573494135
 20
34.76174347095832
 30
0.0
 11
8.668785734941398
 21
3.153322826478124
 31
0.0
  0
LINE
  5
BD80
330
BD50
100
AcDbEntity
  8
0
100
AcDbLine
 10
8.668785734941344
 20
37.3118676750667
 30
0.0
 11
8.66878573494135
 21
34.76174347095832
 31
0.0
  0
LINE
  5
BD81
330
BD50
100
AcDbEntity
  8
0
100
AcDbLine
 10
21.08416659901486
 20
39.25961813168333
 30
0.0
 11
36.27050580117951
 21
48.02745515805852
 31
0.0
  0
LINE
  5
BD82
330
BD50
100
AcDbEntity
  8
0
100
AcDbLine
 10
8.984669328752234
 20
66.23042993326082
 30
0.0
 11
36.27050580117951
 21
50.47694490084169
 31
0.0
  0
LINE
  5
BD83
330
BD50
100
AcDbEntity
  8
0
100
AcDbLine
 10
-8.984669328752918
 20
24.34925126511836
 30
0.0
 11
-11.1059896723126
 21
25.57399613650995
 31
0.0
  0
LINE
  5
BD84
330
BD50
100
AcDbEntity
  8
0
100
AcDbLine
 10
38.39182614473917
 20
54.15117951501644
 30
0.0
 11
40.51314648829873
 21
55.37592438640806
 31
0.0
  0
LINE
  5
BD85
330
BD50
100
AcDbEntity
  8
0
100
AcDbLine
 10
11.10598967231187
 20
69.9046645474356
 30
0.0
 11
38.39182614473917
 21
54.15117951501644
 31
0.0
  0
LINE
  5
BD86
330
BD50
100
AcDbEntity
  8
0
100
AcDbLine
 10
36.27050580117951
 20
48.02745515805852
 30
0.0
 11
36.27050580117951
 21
50.47694490084169
 31
0.0
  0
ELLIPSE
  5
BD87
330
BD50
100
AcDbEntity
  8
0
100
AcDbEllipse
 10
36.27050580117962
 20
52.92643464362481
 30
0.0
 11
2.999999999999563
 21
5.196152422706849
 31
0.0
210
0.0
220
0.0
230
1.0
 40
0.5773502691896088
 41
3.926990816986968
 42
5.497787143781885
  0
ELLIPSE
  5
BD88
330
BD50
100
AcDbEntity
  8
0
100
AcDbEllipse
 10
36.27050580117962
 20
52.92643464362481
 30
0.0
 11
-1.500000000000065
 21
-2.598076211353221
 31
0.0
210
0.0
220
0.0
230
1.0
 40
0.577350269189609
 41
0.7853981633976375
 42
2.356194490192581
  0
ELLIPSE
  5
BD89
330
BD50
100
AcDbEntity
  8
0
100
AcDbEllipse
 10
8.9846693287523
 20
68.67991967604396
 30
0.0
 11
-1.500000000000101
 21
-2.598076211353257
 31
0.0
210
0.0
220
0.0
230
0.9999999999999998
 40
0.577350269189612
 41
0.7853981633976402
 42
2.35619449019258
  0
LINE
  5
BD8A
330
BD50
100
AcDbEntity
  8
0
100
AcDbLine
 10
-40.51314648829897
 20
40.10273629753764
 30
0.0
 11
-13.22731001587223
 21
24.3492512651183
 31
0.0
  0
ELLIPSE
  5
BD8B
330
BD50
100
AcDbEntity
  8
0
100
AcDbEllipse
 10
-36.27050580117978
 20
42.55222604032085
 30
0.0
 11
-2.999999999999911
 21
-5.196152422706628
 31
0.0
210
0.0
220
0.0
230
0.9999999999999998
 40
0.5773502691896208
 41
5.497787143782134
 42
6.283185307179588
  0
ELLIPSE
  5
BD8C
330
BD50
100
AcDbEntity
  8
0
100
AcDbEllipse
 10
-8.984669328752957
 20
26.79874100790153
 30
0.0
 11
-2.99999999999996
 21
-5.196152422706672
 31
0.0
210
0.0
220
0.0
230
0.9999999999999998
 40
0.5773502691896219
 41
5.497787143782133
 42
7.06858347057703
  0
LINE
  5
BD8D
330
BD50
100
AcDbEntity
  8
0
100
AcDbLine
 10
-13.22731001587223
 20
24.3492512651183
 30
0.0
 11
-11.10598967231261
 21
25.57399613650991
 31
0.0
  0
ELLIPSE
  5
BD8E
330
BD50
100
AcDbEntity
  8
0
100
AcDbEllipse
 10
-8.984669328752952
 20
26.79874100790152
 30
0.0
 11
-1.499999999999987
 21
-2.598076211353343
 31
0.0
210
0.0
220
0.0
230
1.0
 40
0.5773502691896226
 41
5.497787143782135
 42
7.068583470577034
  0
LINE
  5
BD8F
330
BD50
100
AcDbEntity
  8
0
100
AcDbLine
 10
-11.98466932875285
 20
21.60258858519494
 30
0.0
 11
-39.27050580117967
 21
37.35607361761427
 31
0.0
  0
LINE
  5
BD90
330
BD50
100
AcDbEntity
  8
0
100
AcDbLine
 10
-0.7442197362147703
 20
60.61345321268577
 30
0.0
 11
8.984669328752234
 21
66.23042993326082
 31
0.0
  0
LINE
  5
BD91
330
BD50
100
AcDbEntity
  8
0
100
AcDbLine
 10
5.287401107306843
 20
53.04861239039047
 30
0.0
 11
-0.7442197362145908
 21
56.53097030804712
 31
0.0
  0
LINE
  5
BD92
330
BD50
100
AcDbEntity
  8
0
100
AcDbLine
 10
4.231221095618434
 20
51.2089084616683
 30
0.0
 11
-0.7442197362145709
 21
54.08148056526399
 31
0.0
  0
LINE
  5
BD93
330
BD50
100
AcDbEntity
  8
0
100
AcDbLine
 10
-0.7442197362145904
 20
56.53097030804712
 30
0.0
 11
-0.7442197362147703
 21
60.61345321268577
 31
0.0
  0
LINE
  5
BD94
330
BD50
100
AcDbEntity
  8
0
100
AcDbLine
 10
0.7442197362141661
 20
34.04871089033197
 30
0.0
 11
0.7442197362142538
 21
29.96622798569333
 31
0.0
  0
LINE
  5
BD95
330
BD50
100
AcDbEntity
  8
0
100
AcDbLine
 10
0.7442197362142538
 20
29.96622798569333
 30
0.0
 11
0.7442197362142623
 21
27.51673824291012
 31
0.0
  0
LINE
  5
BD96
330
BD50
100
AcDbEntity
  8
0
100
AcDbLine
 10
-0.7442197362145708
 20
54.08148056526399
 30
0.0
 11
-0.7442197362145904
 21
56.53097030804712
 31
0.0
  0
ELLIPSE
  5
BD97
330
BD50
100
AcDbEntity
  8
0
100
AcDbEllipse
 10
4.226740935527034
 20
52.43623995469469
 30
0.0
 11
1.500000000000001
 21
0.0000000000000025
 31
0.0
210
0.0
220
0.0
230
1.0
 40
0.5773502691896245
 41
5.497787143782158
 42
7.068583470577051
  0
ELLIPSE
  5
BD98
330
BD50
100
AcDbEntity
  8
0
100
AcDbEllipse
 10
-4.226740935527336
 20
38.14344124368444
 30
0.0
 11
-1.5
 21
-0.0000000000000027
 31
0.0
210
0.0
220
0.0
230
1.0
 40
0.5773502691896248
 41
5.497787143782144
 42
7.068583470577046
  0
LINE
  5
BD99
330
BD50
100
AcDbEntity
  8
0
100
AcDbLine
 10
-5.287401107307179
 20
37.53106880798867
 30
0.0
 11
-5.287401107307184
 21
38.75581367938024
 31
0.0
  0
LINE
  5
BD9A
330
BD50
100
AcDbEntity
  8
0
100
AcDbLine
 10
5.287401107306843
 20
53.04861239039047
 30
0.0
 11
5.287401107306848
 21
51.82386751899891
 31
0.0
  0
LINE
  5
BD9B
330
BD50
100
AcDbEntity
  8
0
100
AcDbLine
 10
4.426145047821711
 20
51.32662110121393
 30
0.0
 11
5.287401107306889
 21
51.82386751899892
 31
0.0
  0
LINE
  5
BD9C
330
BD50
100
AcDbEntity
  8
0
100
AcDbLine
 10
-4.426145047821971
 20
39.25306009716521
 30
0.0
 11
-5.287401107307184
 21
38.75581367938024
 31
0.0
  0
LINE
  5
BD9D
330
BD50
100
AcDbEntity
  8
0
100
AcDbLine
 10
0.7442197362142538
 20
29.96622798569333
 30
0.0
 11
-8.984669328752918
 21
24.34925126511836
 31
0.0
  0
LINE
  5
BD9E
330
BD50
100
AcDbEntity
  8
0
100
AcDbLine
 10
-5.287401107307148
 20
37.53106880798867
 30
0.0
 11
0.7442197362141656
 21
34.04871089033197
 31
0.0
  0
LINE
  5
BD9F
330
BD50
100
AcDbEntity
  8
0
100
AcDbLine
 10
-8.984669328752925
 20
21.89976152233514
 30
0.0
 11
0.7442197362142622
 21
27.51673824291012
 31
0.0
  0
LINE
  5
BDA0
330
BD50
100
AcDbEntity
  8
0
100
AcDbLine
 10
-8.984669328752918
 20
24.34925126511836
 30
0.0
 11
-8.984669328752925
 21
21.89976152233514
 31
0.0
  0
LINE
  5
BDA1
330
BD50
100
AcDbEntity
  8
0
100
AcDbLine
 10
-10.79010607850156
 20
4.551955407736505
 30
0.0
 11
-10.79010607850157
 21
21.32310372378552
 31
0.0
  0
LINE
  5
BDA2
330
BD50
100
AcDbEntity
  8
0
100
AcDbLine
 10
-10.79010607850097
 20
-116.2380992849682
 30
0.0
 11
-10.79010607850156
 21
4.551955407736514
 31
0.0
  0
LINE
  5
BDA3
330
BD50
100
AcDbEntity
  8
0
100
AcDbLine
 10
-2.3048247042623
 20
-121.1370787705345
 30
0.0
 11
-10.79010607850097
 21
-116.2380992849682
 31
0.0
  0
LINE
  5
BDA4
330
BD50
100
AcDbEntity
  8
0
100
AcDbLine
 10
-2.3048247042623
 20
-121.1370787705345
 30
0.0
 11
-2.304824704262313
 21
25.75637161442977
 31
0.0
  0
LINE
  5
BDA5
330
BD50
100
AcDbEntity
  8
0
100
AcDbLine
 10
-7.125892516127852
 20
-6.90376113667968
 30
0.0
 11
-3.625892516127813
 21
-12.96593896317072
 31
0.0
  0
ELLIPSE
  5
BDA6
330
BD50
100
AcDbEntity
  8
0
100
AcDbEllipse
 10
-4.375892516127819
 20
-13.39895166506294
 30
0.0
 11
0.7500000000000007
 21
-1.299038105676652
 31
0.0
210
0.0
220
0.0
230
1.0
 40
0.5773502691896323
 41
4.712388980384691
 42
7.853981633974468
  0
LINE
  5
BDA7
330
BD50
100
AcDbEntity
  8
0
100
AcDbLine
 10
-5.125892516127819
 20
-13.83196436695518
 30
0.0
 11
-8.625892516127869
 21
-7.769786540464123
 31
0.0
  0
ELLIPSE
  5
BDA8
330
BD50
100
AcDbEntity
  8
0
100
AcDbEllipse
 10
-7.875892516127861
 20
-7.336773838571888
 30
0.0
 11
-0.750000000000005
 21
1.299038105676638
 31
0.0
210
0.0
220
0.0
230
0.9999999999999998
 40
0.5773502691896323
 41
4.71238898038468
 42
7.853981633974482
  0
LINE
  5
BDA9
330
BD50
100
AcDbEntity
  8
0
100
AcDbLine
 10
-3.625892516127811
 20
-12.96593896317072
 30
0.0
 11
-5.125892516127819
 21
-13.83196436695518
 31
0.0
  0
LINE
  5
BDAA
330
BD50
100
AcDbEntity
  8
0
100
AcDbLine
 10
-7.125892516127852
 20
-6.903761136679671
 30
0.0
 11
-8.625892516127869
 21
-7.769786540464123
 31
0.0
  0
LINE
  5
BDAB
330
BD50
100
AcDbEntity
  8
0
100
AcDbLine
 10
-7.125892516127852
 20
-23.2336927552342
 30
0.0
 11
-3.625892516127813
 21
-29.29587058172524
 31
0.0
  0
ELLIPSE
  5
BDAC
330
BD50
100
AcDbEntity
  8
0
100
AcDbEllipse
 10
-4.375892516127805
 20
-29.72888328361749
 30
0.0
 11
0.7500000000000167
 21
-1.299038105676642
 31
0.0
210
0.0
220
0.0
230
1.0
 40
0.5773502691896323
 41
4.712388980384669
 42
7.853981633974497
  0
LINE
  5
BDAD
330
BD50
100
AcDbEntity
  8
0
100
AcDbLine
 10
-5.125892516127827
 20
-30.16189598550967
 30
0.0
 11
-8.625892516127859
 21
-24.09971815901864
 31
0.0
  0
ELLIPSE
  5
BDAE
330
BD50
100
AcDbEntity
  8
0
100
AcDbEllipse
 10
-7.87589251612785
 20
-23.66670545712642
 30
0.0
 11
-0.7500000000000035
 21
1.29903810567664
 31
0.0
210
0.0
220
0.0
230
0.9999999999999998
 40
0.5773502691896323
 41
4.712388980384689
 42
7.853981633974482
  0
LINE
  5
BDAF
330
BD50
100
AcDbEntity
  8
0
100
AcDbLine
 10
-7.125892516127852
 20
-39.56362437378874
 30
0.0
 11
-3.625892516127795
 21
-45.62580220027977
 31
0.0
  0
ELLIPSE
  5
BDB0
330
BD50
100
AcDbEntity
  8
0
100
AcDbEllipse
 10
-4.375892516127812
 20
-46.05881490217201
 30
0.0
 11
0.7500000000000064
 21
-1.299038105676648
 31
0.0
210
0.0
220
0.0
230
1.0
 40
0.5773502691896323
 41
4.712388980384673
 42
7.853981633974481
  0
LINE
  5
BDB1
330
BD50
100
AcDbEntity
  8
0
100
AcDbLine
 10
-5.125892516127822
 20
-46.49182760406422
 30
0.0
 11
-8.625892516127839
 21
-40.42964977757319
 31
0.0
  0
ELLIPSE
  5
BDB2
330
BD50
100
AcDbEntity
  8
0
100
AcDbEllipse
 10
-7.87589251612786
 20
-39.99663707568097
 30
0.0
 11
-0.7500000000000054
 21
1.299038105676638
 31
0.0
210
0.0
220
0.0
230
0.9999999999999998
 40
0.5773502691896323
 41
4.712388980384687
 42
7.853981633974481
  0
LINE
  5
BDB3
330
BD50
100
AcDbEntity
  8
0
100
AcDbLine
 10
-7.125892516127828
 20
-55.89355599234327
 30
0.0
 11
-3.6258925161278
 21
-61.95573381883431
 31
0.0
  0
ELLIPSE
  5
BDB4
330
BD50
100
AcDbEntity
  8
0
100
AcDbEllipse
 10
-4.375892516127799
 20
-62.38874652072653
 30
0.0
 11
0.7500000000000098
 21
-1.299038105676647
 31
0.0
210
0.0
220
0.0
230
0.9999999999999998
 40
0.5773502691896321
 41
4.712388980384673
 42
7.85398163397448
  0
LINE
  5
BDB5
330
BD50
100
AcDbEntity
  8
0
100
AcDbLine
 10
-5.125892516127792
 20
-62.82175922261874
 30
0.0
 11
-8.625892516127843
 21
-56.7595813961277
 31
0.0
  0
ELLIPSE
  5
BDB6
330
BD50
100
AcDbEntity
  8
0
100
AcDbEllipse
 10
-7.875892516127845
 20
-56.32656869423549
 30
0.0
 11
-0.7499999999999964
 21
1.299038105676644
 31
0.0
210
0.0
220
0.0
230
1.0
 40
0.5773502691896321
 41
4.712388980384673
 42
7.853981633974465
  0
LINE
  5
BDB7
330
BD50
100
AcDbEntity
  8
0
100
AcDbLine
 10
-7.125892516127835
 20
-72.2234876108978
 30
0.0
 11
-3.625892516127801
 21
-78.28566543738881
 31
0.0
  0
ELLIPSE
  5
BDB8
330
BD50
100
AcDbEntity
  8
0
100
AcDbEllipse
 10
-4.375892516127793
 20
-78.71867813928102
 30
0.0
 11
0.7500000000000047
 21
-1.299038105676649
 31
0.0
210
0.0
220
0.0
230
1.0
 40
0.5773502691896323
 41
4.712388980384675
 42
7.853981633974468
  0
LINE
  5
BDB9
330
BD50
100
AcDbEntity
  8
0
100
AcDbLine
 10
-5.125892516127815
 20
-79.15169084117325
 30
0.0
 11
-8.625892516127853
 21
-73.08951301468223
 31
0.0
  0
ELLIPSE
  5
BDBA
330
BD50
100
AcDbEntity
  8
0
100
AcDbEllipse
 10
-7.875892516127846
 20
-72.65650031279005
 30
0.0
 11
-0.7499999999999825
 21
1.299038105676651
 31
0.0
210
0.0
220
0.0
230
1.0
 40
0.5773502691896323
 41
4.712388980384684
 42
7.853981633974443
  0
LINE
  5
BDBB
330
BD50
100
AcDbEntity
  8
0
100
AcDbLine
 10
-7.125892516127835
 20
-88.55341922945235
 30
0.0
 11
-3.62589251612778
 21
-94.61559705594337
 31
0.0
  0
ELLIPSE
  5
BDBC
330
BD50
100
AcDbEntity
  8
0
100
AcDbEllipse
 10
-4.375892516127787
 20
-95.04860975783561
 30
0.0
 11
0.7500000000000185
 21
-1.299038105676641
 31
0.0
210
0.0
220
0.0
230
1.0
 40
0.577350269189632
 41
4.712388980384687
 42
7.853981633974508
  0
LINE
  5
BDBD
330
BD50
100
AcDbEntity
  8
0
100
AcDbLine
 10
-5.125892516127795
 20
-95.48162245972779
 30
0.0
 11
-8.625892516127841
 21
-89.41944463323677
 31
0.0
  0
ELLIPSE
  5
BDBE
330
BD50
100
AcDbEntity
  8
0
100
AcDbEllipse
 10
-7.875892516127845
 20
-88.98643193134454
 30
0.0
 11
-0.7499999999999917
 21
1.299038105676647
 31
0.0
210
0.0
220
0.0
230
1.0
 40
0.5773502691896323
 41
4.712388980384677
 42
7.853981633974454
  0
LINE
  5
BDBF
330
BD50
100
AcDbEntity
  8
0
100
AcDbLine
 10
-7.125892516127816
 20
-104.8833508480068
 30
0.0
 11
-3.625892516127792
 21
-110.9455286744978
 31
0.0
  0
ELLIPSE
  5
BDC0
330
BD50
100
AcDbEntity
  8
0
100
AcDbEllipse
 10
-4.375892516127787
 20
-111.37854137639
 30
0.0
 11
0.7500000000000146
 21
-1.299038105676643
 31
0.0
210
0.0
220
0.0
230
1.0
 40
0.5773502691896321
 41
4.712388980384693
 42
7.853981633974486
  0
LINE
  5
BDC1
330
BD50
100
AcDbEntity
  8
0
100
AcDbLine
 10
-5.125892516127818
 20
-111.8115540782823
 30
0.0
 11
-8.625892516127834
 21
-105.7493762517912
 31
0.0
  0
ELLIPSE
  5
BDC2
330
BD50
100
AcDbEntity
  8
0
100
AcDbEllipse
 10
-7.875892516127836
 20
-105.316363549899
 30
0.0
 11
-0.749999999999996
 21
1.299038105676645
 31
0.0
210
0.0
220
0.0
230
1.0
 40
0.5773502691896321
 41
4.71238898038467
 42
7.853981633974476
  0
LINE
  5
BDC3
330
BD50
100
AcDbEntity
  8
0
100
AcDbLine
 10
-3.625892516127782
 20
-110.9455286744978
 30
0.0
 11
-5.125892516127818
 21
-111.8115540782823
 31
0.0
  0
LINE
  5
BDC4
330
BD50
100
AcDbEntity
  8
0
100
AcDbLine
 10
-7.125892516127851
 20
-104.8833508480068
 30
0.0
 11
-8.625892516127834
 21
-105.7493762517912
 31
0.0
  0
LINE
  5
BDC5
330
BD50
100
AcDbEntity
  8
0
100
AcDbLine
 10
-3.625892516127784
 20
-94.61559705594337
 30
0.0
 11
-5.125892516127795
 21
-95.48162245972779
 31
0.0
  0
LINE
  5
BDC6
330
BD50
100
AcDbEntity
  8
0
100
AcDbLine
 10
-7.125892516127853
 20
-88.55341922945228
 30
0.0
 11
-8.625892516127841
 21
-89.41944463323677
 31
0.0
  0
LINE
  5
BDC7
330
BD50
100
AcDbEntity
  8
0
100
AcDbLine
 10
-3.625892516127808
 20
-78.28566543738881
 30
0.0
 11
-5.125892516127815
 21
-79.15169084117325
 31
0.0
  0
LINE
  5
BDC8
330
BD50
100
AcDbEntity
  8
0
100
AcDbLine
 10
-7.125892516127874
 20
-72.22348761089778
 30
0.0
 11
-8.625892516127853
 21
-73.08951301468223
 31
0.0
  0
LINE
  5
BDC9
330
BD50
100
AcDbEntity
  8
0
100
AcDbLine
 10
-3.625892516127799
 20
-61.95573381883431
 30
0.0
 11
-5.125892516127792
 21
-62.82175922261874
 31
0.0
  0
LINE
  5
BDCA
330
BD50
100
AcDbEntity
  8
0
100
AcDbLine
 10
-7.125892516127859
 20
-55.89355599234324
 30
0.0
 11
-8.625892516127843
 21
-56.7595813961277
 31
0.0
  0
LINE
  5
BDCB
330
BD50
100
AcDbEntity
  8
0
100
AcDbLine
 10
-3.625892516127819
 20
-45.62580220027974
 30
0.0
 11
-5.125892516127822
 21
-46.49182760406422
 31
0.0
  0
LINE
  5
BDCC
330
BD50
100
AcDbEntity
  8
0
100
AcDbLine
 10
-7.125892516127865
 20
-39.56362437378876
 30
0.0
 11
-8.625892516127839
 21
-40.42964977757319
 31
0.0
  0
LINE
  5
BDCD
330
BD50
100
AcDbEntity
  8
0
100
AcDbLine
 10
-3.625892516127828
 20
-29.29587058172522
 30
0.0
 11
-5.125892516127827
 21
-30.16189598550967
 31
0.0
  0
LINE
  5
BDCE
330
BD50
100
AcDbEntity
  8
0
100
AcDbLine
 10
-7.125892516127851
 20
-23.23369275523419
 30
0.0
 11
-8.625892516127859
 21
-24.09971815901864
 31
0.0
  0
LINE
  5
BDCF
330
BD50
100
AcDbEntity
  8
0
100
AcDbLine
 10
-14.51204472279883
 20
23.06176944929059
 30
0.0
 11
-10.79010607850156
 21
4.551955407736505
 31
0.0
  0
LINE
  5
BDD0
330
BD50
100
AcDbEntity
  8
0
100
AcDbLine
 10
0.9611115194853368
 20
44.56498092377817
 30
0.0
 11
-0.0155929438861978
 21
46.20266713621633
 31
0.0
  0
ELLIPSE
  5
BDD1
330
BD50
100
AcDbEntity
  8
0
100
AcDbEllipse
 10
1.937815982856916
 20
42.9272947113402
 30
0.0
 11
3.000000000000019
 21
0.000000000000057
 31
0.0
210
0.0
220
0.0
230
1.0
 40
0.5773502691895891
 41
4.677178363873965
 42
8.185594191853432
  0
LINE
  5
BDD2
330
BD50
100
AcDbEntity
  8
0
100
AcDbLine
 10
1.832205958813156
 20
41.1963174803304
 30
0.0
 11
1.72659593476939
 21
39.46534024932076
 31
0.0
  0
ELLIPSE
  5
BDD3
330
BD50
100
AcDbEntity
  8
0
100
AcDbEllipse
 10
1.937815982856916
 20
42.9272947113402
 30
0.0
 11
6.000000000000047
 21
0.0000000000000073
 31
0.0
210
0.0
220
0.0
230
1.0
 40
0.5773502691896448
 41
4.677178363873974
 42
8.185594191853434
  0
LINE
  5
BDD4
330
BD50
100
AcDbEntity
  8
0
100
AcDbLine
 10
-0.0155929438861978
 20
46.20266713621633
 30
0.0
 11
-0.9611115194855347
 21
46.01470027460091
 31
0.0
  0
LINE
  5
BDD5
330
BD50
100
AcDbEntity
  8
0
100
AcDbLine
 10
0.0155929438860047
 20
44.37701406216274
 30
0.0
 11
-0.9611115194855347
 21
46.01470027460091
 31
0.0
  0
LINE
  5
BDD6
330
BD50
100
AcDbEntity
  8
0
100
AcDbLine
 10
0.0155929438860047
 20
44.37701406216274
 30
0.0
 11
0.9611115194853368
 21
44.56498092377817
 31
0.0
  0
LINE
  5
BDD7
330
BD50
100
AcDbEntity
  8
0
100
AcDbLine
 10
-1.726595934769519
 20
46.21536146349199
 30
0.0
 11
-1.726595934769523
 21
51.11434094905835
 31
0.0
  0
LINE
  5
BDD8
330
BD50
100
AcDbEntity
  8
0
100
AcDbLine
 10
-1.832205958813293
 20
49.3833637180487
 30
0.0
 11
-1.726595934769523
 21
51.11434094905835
 31
0.0
  0
LINE
  5
BDD9
330
BD50
100
AcDbEntity
  8
0
100
AcDbLine
 10
-1.832205958813289
 20
45.9214092560294
 30
0.0
 11
-1.832205958813293
 21
49.3833637180487
 31
0.0
  0
LINE
  5
BDDA
330
BD50
100
AcDbEntity
  8
0
100
AcDbLine
 10
1.726595934769396
 20
34.56636076375446
 30
0.0
 11
1.72659593476939
 21
39.46534024932076
 31
0.0
  0
ELLIPSE
  5
BDDB
330
BD50
100
AcDbEntity
  8
0
100
AcDbEllipse
 10
-1.937815982857043
 20
47.65238648703905
 30
0.0
 11
-2.999999999999983
 21
-0.000000000000002
 31
0.0
210
0.0
220
0.0
230
1.0
 40
0.5773502691896255
 41
4.677178363873977
 42
8.18559419185342
  0
ELLIPSE
  5
BDDC
330
BD50
100
AcDbEntity
  8
0
100
AcDbEllipse
 10
-1.937815982857043
 20
47.65238648703905
 30
0.0
 11
-6.000000000000006
 21
-0.0000000000000026
 31
0.0
210
0.0
220
0.0
230
1.0
 40
0.5773502691896257
 41
4.677178363873975
 42
8.185594191853425
  0
ELLIPSE
  5
BDDD
330
BD50
100
AcDbEntity
  8
0
100
AcDbEllipse
 10
25.84068077867756
 20
108.1420159288622
 30
0.0
 11
1.24999999999992
 21
-2.165063509461143
 31
0.0
210
0.0
220
0.0
230
1.0
 40
0.577350269189641
 41
0.0
 42
6.283185307179586
  0
ELLIPSE
  5
BDDE
330
BD50
100
AcDbEntity
  8
0
100
AcDbEllipse
 10
27.96200112223714
 20
109.3667608002538
 30
0.0
 11
1.250000000000181
 21
-2.165063509460992
 31
0.0
210
0.0
220
0.0
230
1.0
 40
0.5773502691896401
 41
4.154790153684963
 42
5.269987807084169
  0
ELLIPSE
  5
BDDF
330
BD50
100
AcDbEntity
  8
0
100
AcDbEllipse
 10
32.73497189524659
 20
88.85228420444477
 30
0.0
 11
1.249999999999919
 21
-2.165063509461142
 31
0.0
210
0.0
220
0.0
230
1.0
 40
0.577350269189641
 41
0.0
 42
6.283185307179586
  0
ELLIPSE
  5
BDE0
330
BD50
100
AcDbEntity
  8
0
100
AcDbEllipse
 10
34.85629223880619
 20
90.07702907583638
 30
0.0
 11
1.25000000000018
 21
-2.165063509460992
 31
0.0
210
0.0
220
0.0
230
1.0
 40
0.57735026918964
 41
4.154790153684979
 42
5.269987807084161
  0
ELLIPSE
  5
BDE1
330
BD50
100
AcDbEntity
  8
0
100
AcDbEllipse
 10
17.4699507029909
 20
127.4676735028404
 30
0.0
 11
2.124999999999864
 21
-3.680607966083945
 31
0.0
210
0.0
220
0.0
230
0.9999999999999998
 40
0.577350269189641
 41
0.0
 42
6.283185307179586
  0
ELLIPSE
  5
BDE2
330
BD50
100
AcDbEntity
  8
0
100
AcDbEllipse
 10
19.5912710465505
 20
128.692418374232
 30
0.0
 11
2.125000000000309
 21
-3.68060796608369
 31
0.0
210
0.0
220
0.0
230
1.0
 40
0.5773502691896399
 41
3.664191975904914
 42
5.760585984863704
  0
ELLIPSE
  5
BDE3
330
BD50
100
AcDbEntity
  8
0
100
AcDbEllipse
 10
-25.84068077867816
 20
80.82550327130817
 30
0.0
 11
1.250000000000148
 21
-2.165063509461009
 31
0.0
210
0.0
220
0.0
230
1.0
 40
0.577350269189629
 41
4.15479015368502
 42
5.269987807084127
  0
ELLIPSE
  5
BDE4
330
BD50
100
AcDbEntity
  8
0
100
AcDbEllipse
 10
-27.96200112223778
 20
79.60075839991659
 30
0.0
 11
1.24999999999989
 21
-2.165063509461159
 31
0.0
210
0.0
220
0.0
230
1.0
 40
0.5773502691896299
 41
0.0
 42
6.283185307179586
  0
ELLIPSE
  5
BDE5
330
BD50
100
AcDbEntity
  8
0
100
AcDbEllipse
 10
-32.73497189524702
 20
69.49661321093595
 30
0.0
 11
1.250000000000149
 21
-2.16506350946101
 31
0.0
210
0.0
220
0.0
230
1.0
 40
0.5773502691896289
 41
4.154790153685024
 42
5.269987807084107
  0
ELLIPSE
  5
BDE6
330
BD50
100
AcDbEntity
  8
0
100
AcDbEllipse
 10
-34.85629223880665
 20
68.27186833954434
 30
0.0
 11
1.24999999999989
 21
-2.165063509461159
 31
0.0
210
0.0
220
0.0
230
1.0
 40
0.5773502691896299
 41
0.0
 42
6.283185307179586
  0
ELLIPSE
  5
BDE7
330
BD50
100
AcDbEntity
  8
0
100
AcDbEllipse
 10
-17.46995070299178
 20
90.48547432026413
 30
0.0
 11
2.125000000000259
 21
-3.680607966083716
 31
0.0
210
0.0
220
0.0
230
1.0
 40
0.5773502691896296
 41
3.664191975904925
 42
5.760585984863691
  0
ELLIPSE
  5
BDE8
330
BD50
100
AcDbEntity
  8
0
100
AcDbEllipse
 10
-19.5912710465514
 20
89.26072944887252
 30
0.0
 11
2.124999999999823
 21
-3.680607966083969
 31
0.0
210
0.0
220
0.0
230
1.0
 40
0.5773502691896282
 41
0.0
 42
6.283185307179586
  0
LINE
  5
BDE9
330
BD50
100
AcDbEntity
  8
0
100
AcDbLine
 10
40.51314648829867
 20
119.8791542796984
 30
0.0
 11
36.97761258236587
 21
126.0028786366563
 31
0.0
  0
LINE
  5
BDEA
330
BD50
100
AcDbEntity
  8
0
100
AcDbLine
 10
36.97761258236587
 20
126.0028786366563
 30
0.0
 11
34.85629223880625
 21
124.7781337652647
 31
0.0
  0
LINE
  5
BDEB
330
BD50
100
AcDbEntity
  8
0
100
AcDbLine
 10
34.85629223880625
 20
124.7781337652647
 30
0.0
 11
38.39182614473891
 21
118.6544094083067
 31
0.0
  0
LINE
  5
BDEC
330
BD50
100
AcDbEntity
  8
0
100
AcDbLine
 10
38.39182614473891
 20
118.6544094083067
 30
0.0
 11
40.51314648829867
 21
119.8791542796984
 31
0.0
  0
LINE
  5
BDED
330
BD50
100
AcDbEntity
  8
0
100
AcDbLine
 10
11.10598967231178
 20
134.4078944407261
 30
0.0
 11
14.64152357824472
 21
136.4491358930453
 31
0.0
  0
LINE
  5
BDEE
330
BD50
100
AcDbEntity
  8
0
100
AcDbLine
 10
-16.76284392180517
 20
94.97620551536661
 30
0.0
 11
-13.2273100158725
 21
88.8524811584087
 31
0.0
  0
LINE
  5
BDEF
330
BD50
100
AcDbEntity
  8
0
100
AcDbLine
 10
-13.2273100158725
 20
88.8524811584087
 30
0.0
 11
-11.10598967231286
 21
90.07722602980036
 31
0.0
  0
LINE
  5
BDF0
330
BD50
100
AcDbEntity
  8
0
100
AcDbLine
 10
-11.10598967231286
 20
90.07722602980036
 30
0.0
 11
-14.64152357824556
 21
96.20095038675826
 31
0.0
  0
LINE
  5
BDF1
330
BD50
100
AcDbEntity
  8
0
100
AcDbLine
 10
-14.64152357824556
 20
96.20095038675826
 30
0.0
 11
-16.76284392180517
 21
94.97620551536661
 31
0.0
  0
LINE
  5
BDF2
330
BD50
100
AcDbEntity
  8
0
100
AcDbLine
 10
-36.97761258236643
 20
106.6472076431474
 30
0.0
 11
-34.85629223880678
 21
107.871952514539
 31
0.0
  0
LINE
  5
BDF3
330
BD50
100
AcDbEntity
  8
0
100
AcDbLine
 10
-40.51314648829917
 20
104.6059661908281
 30
0.0
 11
-36.97761258236643
 21
106.6472076431474
 31
0.0
  0
LINE
  5
BDF4
330
BD50
100
AcDbEntity
  8
0
100
AcDbLine
 10
14.64152357824472
 20
136.4491358930453
 30
0.0
 11
16.76284392180429
 21
137.6738807644369
 31
0.0
  0
LINE
  5
BDF5
330
BD50
100
AcDbEntity
  8
0
100
AcDbLine
 10
38.39182614473891
 20
118.6544094083067
 30
0.0
 11
38.39182614473917
 21
54.15117951501644
 31
0.0
  0
LINE
  5
BDF6
330
BD50
100
AcDbEntity
  8
0
100
AcDbLine
 10
40.51314648829873
 20
55.37592438640806
 30
0.0
 11
40.51314648829867
 21
119.8791542796984
 31
0.0
  0
LINE
  5
BDF7
330
BD50
100
AcDbEntity
  8
0
100
AcDbLine
 10
34.85629223880625
 20
124.7781337652647
 30
0.0
 11
14.64152357824472
 21
136.4491358930453
 31
0.0
  0
LINE
  5
BDF8
330
BD50
100
AcDbEntity
  8
0
100
AcDbLine
 10
11.10598967231178
 20
134.4078944407261
 30
0.0
 11
11.10598967231187
 21
69.9046645474356
 31
0.0
  0
LINE
  5
BDF9
330
BD50
100
AcDbEntity
  8
0
100
AcDbLine
 10
-34.85629223880678
 20
107.871952514539
 30
0.0
 11
-14.64152357824556
 21
96.20095038675826
 31
0.0
  0
LINE
  5
BDFA
330
BD50
100
AcDbEntity
  8
0
100
AcDbLine
 10
-36.97761258236643
 20
106.6472076431474
 30
0.0
 11
-16.76284392180517
 21
94.97620551536662
 31
0.0
  0
LINE
  5
BDFB
330
BD50
100
AcDbEntity
  8
0
100
AcDbLine
 10
-11.10598967231286
 20
90.07722602980036
 30
0.0
 11
-11.10598967231261
 21
25.57399613650991
 31
0.0
  0
LINE
  5
BDFC
330
BD50
100
AcDbEntity
  8
0
100
AcDbLine
 10
-40.51314648829897
 20
40.10273629753764
 30
0.0
 11
-40.51314648829917
 21
104.6059661908281
 31
0.0
  0
LINE
  5
BDFD
330
BD50
100
AcDbEntity
  8
0
100
AcDbLine
 10
36.97761258236587
 20
126.0028786366563
 30
0.0
 11
16.76284392180429
 21
137.6738807644369
 31
0.0
  0
LINE
  5
BDFE
330
BD50
100
AcDbEntity
  8
0
100
AcDbLine
 10
-13.2273100158725
 20
88.8524811584087
 30
0.0
 11
-13.22731001587223
 21
24.3492512651183
 31
0.0
  0
LINE
  5
BDFF
330
BD50
100
AcDbEntity
  8
0
100
AcDbLine
 10
0.9611115194853368
 20
44.56498092377817
 30
0.0
 11
0.961111519485342
 21
35.19313967807962
 31
0.0
  0
LINE
  5
BE00
330
BD50
100
AcDbEntity
  8
0
100
AcDbLine
 10
0.0155929438860047
 20
44.37701406216274
 30
0.0
 11
0.0155929438860093
 21
35.90286475826016
 31
0.0
  0
LINE
  5
BE01
330
BD50
100
AcDbEntity
  8
0
100
AcDbLine
 10
-7.937815982857045
 20
43.12002058316335
 30
0.0
 11
-7.937815982857046
 21
47.65238648703904
 31
0.0
  0
LINE
  5
BE02
330
BD50
100
AcDbEntity
  8
0
100
AcDbLine
 10
7.937815982857049
 20
-118.6875890277514
 30
0.0
 11
7.937815982857014
 21
42.9272947113402
 31
0.0
  0
LINE
  5
BE03
330
BD50
100
AcDbEntity
  8
0
100
AcDbLine
 10
-1.726595934769519
 20
46.21536146349199
 30
0.0
 11
-1.744376076149316
 21
45.92394007455443
 31
0.0
  0
SPLINE
  5
BE04
330
BD50
100
AcDbEntity
  8
0
100
AcDbSpline
210
0.0
220
0.0
230
1.0
 70
     8
 71
     3
 72
    14
 73
    10
 74
     0
 42
0.000000001
 43
0.0000000001
 40
-0.3483661581040211
 40
-0.3483661581040211
 40
-0.3483661581040211
 40
-0.3483661581040211
 40
0.4440817313539145
 40
0.4440817313539145
 40
0.4440817313539145
 40
1.569165144395761
 40
1.569165144395761
 40
1.569165144395761
 40
2.356194490192126
 40
2.356194490192126
 40
2.356194490192126
 40
2.356194490192126
 10
1.720898725392268
 20
35.78486832031237
 30
0.0
 10
1.592402717395048
 20
35.49900456471657
 30
0.0
 10
1.363880136819821
 20
35.27477707651183
 30
0.0
 10
1.095063262947716
 20
35.21191555369745
 30
0.0
 10
0.7134086330815809
 20
35.12266746864623
 30
0.0
 10
0.2962126343332093
 20
35.37666193252606
 30
0.0
 10
0.062883395836074
 20
35.80876544032041
 30
0.0
 10
-0.1003373536664641
 20
36.11103470952619
 30
0.0
 10
-0.183504360702817
 20
36.48226696941567
 30
0.0
 10
-0.1835043607028644
 20
36.80357035438195
 30
0.0
  0
LINE
  5
BE05
330
BD50
100
AcDbEntity
  8
0
100
AcDbLine
 10
-2.105420591967657
 20
35.69395150090132
 30
0.0
 11
-0.1835043607027134
 21
36.80357035438206
 31
0.0
  0
SPLINE
  5
BE06
330
BD50
100
AcDbEntity
  8
0
100
AcDbSpline
210
0.0
220
0.0
230
1.0
 70
     8
 71
     3
 72
     8
 73
     4
 74
     0
 42
0.000000001
 43
0.0000000001
 40
1.379729697022005
 40
1.379729697022005
 40
1.379729697022005
 40
1.379729697022005
 40
2.356194490192187
 40
2.356194490192187
 40
2.356194490192187
 40
2.356194490192187
 10
0.7436418130472826
 20
33.61886884510334
 30
0.0
 10
1.334088720225977
 20
33.77341743038165
 30
0.0
 10
1.726595934768867
 20
34.16772068124445
 30
0.0
 10
1.726595934768982
 20
34.56636076375432
 30
0.0
  0
SPLINE
  5
BE07
330
BD50
100
AcDbEntity
  8
0
100
AcDbSpline
210
0.0
220
0.0
230
1.0
 70
     8
 71
     3
 72
     8
 73
     4
 74
     0
 42
0.000000001
 43
0.0000000001
 40
2.12020183379051
 40
2.12020183379051
 40
2.12020183379051
 40
2.12020183379051
 40
2.356194490192299
 40
2.356194490192299
 40
2.356194490192299
 40
2.356194490192299
 10
-1.660564039123233
 20
45.92929524625292
 30
0.0
 10
-1.703669768224659
 20
46.02326811180573
 30
0.0
 10
-1.726595934769596
 20
46.11901786495391
 30
0.0
 10
-1.726595934769605
 20
46.21536146349197
 30
0.0
  0
ELLIPSE
  5
BE08
330
BD50
100
AcDbEntity
  8
0
100
AcDbEllipse
 10
1.937815982856951
 20
-118.6875890277514
 30
0.0
 11
6.000000000000019
 21
0.0000000000003583
 31
0.0
210
0.0
220
0.0
230
1.0
 40
0.5773502691896255
 41
3.926990816987009
 42
6.283185307179204
  0
ENDBLK
  5
BD52
330
BD50
100
AcDbEntity
  8
0
100
AcDbBlockEnd
  0
ENDSEC
  0
SECTION
  2
ENTITIES
  0
INSERT
  5
BE09
330
1F
100
AcDbEntity
  8
0
100
AcDbBlockReference
  2
PBWS70-Front
 10
0.0
 20
0.0
 30
0.0
  0
INSERT
  5
BE0A
330
1F
100
AcDbEntity
  8
0
100
AcDbBlockReference
  2
PBWS70-Left
 10
140.8010978852953
 20
0.0
 30
0.0
  0
INSERT
  5
BE0B
330
1F
100
AcDbEntity
  8
0
100
AcDbBlockReference
  2
PBWS70-Right
 10
-142.775582436181
 20
0.0
 30
0.0
  0
INSERT
  5
BE0C
330
1F
100
AcDbEntity
  8
0
100
AcDbBlockReference
  2
PBWS70-Top
 10
0.0
 20
-320.4310989424795
 30
0.0
  0
INSERT
  5
BE0D
330
1F
100
AcDbEntity
  8
0
100
AcDbBlockReference
  2
PBWS70-Bottom
 10
0.0
 20
209.4940989424797
 30
0.0
  0
INSERT
  5
BE0E
330
1F
100
AcDbEntity
  8
0
100
AcDbBlockReference
  2
PBWS70-ISO
 10
144.301245431116
 20
-421.0919807644371
 30
0.0
  0
MTEXT
  5
BE0F
330
1F
100
AcDbEntity
  8
0
100
AcDbMText
 10
0.0
 20
-444.8991999998035
 30
0.0
 40
20.95506824365184
 41
0.0
 71
     5
 72
     5
  1
PBWS70Z
 73
     1
 44
1.0
1001
ACAD
1000
MTEXTBEGIN
1070
    73
1070
     1
1070
    44
1040
1.0
1070
    74
1070
     0
1000
MTEXTEND
  0
ENDSEC
  0
SECTION
  2
OBJECTS
  0
DICTIONARY
  5
C
330
0
100
AcDbDictionary
281
     1
  3
ACAD_CIP_PREVIOUS_PRODUCT_INFO
350
216
  3
ACAD_COLOR
350
6B
  3
ACAD_DETAILVIEWSTYLE
350
21B
  3
ACAD_GROUP
350
D
  3
ACAD_LAYOUT
350
1A
  3
ACAD_MATERIAL
350
6A
  3
ACAD_MLEADERSTYLE
350
12D
  3
ACAD_MLINESTYLE
350
17
  3
ACAD_PLOTSETTINGS
350
19
  3
ACAD_PLOTSTYLENAME
350
E
  3
ACAD_SCALELIST
350
10C
  3
ACAD_SECTIONVIEWSTYLE
350
219
  3
ACAD_TABLESTYLE
350
7E
  3
ACAD_VISUALSTYLE
350
EF
  3
ACDB_RECOMPOSE_DATA
350
BF10
  3
AcDbVariableDictionary
350
5E
  3
DWGPROPS
350
BF11
  0
DICTIONARY
  5
BE60
330
8
100
AcDbDictionary
280
     1
281
     1
  0
DICTIONARY
  5
1FF
330
2
100
AcDbDictionary
280
     1
281
     1
  3
ACAD_LAYERSTATES
360
200
  0
DICTIONARY
  5
13C
330
10
100
AcDbDictionary
280
     1
281
     1
  0
DICTIONARY
  5
1CE
330
1F
100
AcDbDictionary
280
     1
281
     1
  3
ACAD_LAYOUTSELFREF
360
BE68
  0
DICTIONARY
  5
BE13
330
D2
100
AcDbDictionary
280
     1
281
     1
  3
ACAD_LAYOUTSELFREF
360
BE71
  0
DICTIONARY
  5
BE15
330
D6
100
AcDbDictionary
280
     1
281
     1
  3
ACAD_LAYOUTSELFREF
360
BE74
  0
XRECORD
  5
216
102
{ACAD_REACTORS
330
C
102
}
330
C
100
AcDbXrecord
280
     1
300
ACD
300
2021
300

  0
DICTIONARY
  5
6B
102
{ACAD_REACTORS
330
C
102
}
330
C
100
AcDbDictionary
281
     1
  0
DICTIONARY
  5
21B
102
{ACAD_REACTORS
330
C
102
}
330
C
100
AcDbDictionary
281
     1
  3
Metric50
350
21C
  0
DICTIONARY
  5
D
102
{ACAD_REACTORS
330
C
102
}
330
C
100
AcDbDictionary
281
     1
  0
DICTIONARY
  5
1A
102
{ACAD_REACTORS
330
C
102
}
330
C
100
AcDbDictionary
281
     1
  3
Layout1
350
D3
  3
Layout2
350
D7
  3
Model
350
22
  0
DICTIONARY
  5
6A
102
{ACAD_REACTORS
330
C
102
}
330
C
100
AcDbDictionary
281
     1
  3
ByBlock
350
ED
  3
ByLayer
350
EC
  3
Global
350
EE
  0
DICTIONARY
  5
12D
102
{ACAD_REACTORS
330
C
102
}
330
C
100
AcDbDictionary
281
     1
  3
Standard
350
12E
  0
DICTIONARY
  5
17
102
{ACAD_REACTORS
330
C
102
}
330
C
100
AcDbDictionary
281
     1
  3
Standard
350
18
  0
DICTIONARY
  5
19
102
{ACAD_REACTORS
330
C
102
}
330
C
100
AcDbDictionary
281
     1
  0
ACDBDICTIONARYWDFLT
  5
E
102
{ACAD_REACTORS
330
C
102
}
330
C
100
AcDbDictionary
281
     1
  3
Normal
350
F
100
AcDbDictionaryWithDefault
340
F
  0
DICTIONARY
  5
10C
102
{ACAD_REACTORS
330
C
102
}
330
C
100
AcDbDictionary
281
     1
  3
A0
350
10D
  3
A1
350
1BE
  3
A2
350
1BF
  3
A3
350
1C0
  3
A4
350
1C1
  3
A5
350
1C2
  3
A6
350
1C3
  3
A7
350
1C4
  3
A8
350
1C5
  3
A9
350
1C6
  3
B0
350
1C7
  3
B1
350
1C8
  3
B2
350
1C9
  3
B3
350
1CA
  3
B4
350
1CB
  3
B5
350
1CC
  3
B6
350
1CD
  0
DICTIONARY
  5
219
102
{ACAD_REACTORS
330
C
102
}
330
C
100
AcDbDictionary
281
     1
  3
Metric50
350
21A
  0
DICTIONARY
  5
7E
102
{ACAD_REACTORS
330
C
102
}
330
C
100
AcDbDictionary
281
     1
  3
Standard
350
7F
  0
DICTIONARY
  5
EF
102
{ACAD_REACTORS
330
C
102
}
330
C
100
AcDbDictionary
281
     1
  3
2dWireframe
350
F5
  3
Basic
350
F4
  3
Brighten
350
FB
  3
ColorChange
350
FF
  3
Conceptual
350
F8
  3
Dim
350
FA
  3
EdgeColorOff
350
1E6
  3
Facepattern
350
FE
  3
Flat
350
F0
  3
FlatWithEdges
350
F1
  3
Gouraud
350
F2
  3
GouraudWithEdges
350
F3
  3
Hidden
350
F7
  3
JitterOff
350
1E4
  3
Linepattern
350
FD
  3
OverhangOff
350
1E5
  3
Realistic
350
F9
  3
Shaded
350
1F3
  3
Shaded with edges
350
1F2
  3
Shades of Gray
350
1EF
  3
Sketchy
350
1F0
  3
Thicken
350
FC
  3
Wireframe
350
F6
  3
X-Ray
350
1F1
  0
XRECORD
  5
BF10
102
{ACAD_REACTORS
330
C
102
}
330
C
100
AcDbXrecord
280
     1
 90
        1
330
7F
  0
DICTIONARY
  5
5E
102
{ACAD_REACTORS
330
C
102
}
330
C
100
AcDbDictionary
281
     1
  3
CANNOSCALE
350
146
  3
CENTEREXE
350
259
  3
CENTERLTYPEFILE
350
25A
  3
CMLEADERSTYLE
350
145
  3
CTABLESTYLE
350
84
  3
CVIEWDETAILSTYLE
350
227
  3
CVIEWSECTIONSTYLE
350
228
  3
DIMASSOC
350
5F
  3
HIDETEXT
350
63
  3
INDEXCTL
350
BEBD
  3
LAYEREVAL
350
1AE
  3
LAYERNOTIFY
350
1AF
  3
LIGHTINGUNITS
350
BEBB
  3
MSLTSCALE
350
BEBA
  3
PSOLHEIGHT
350
BF0D
  3
PSOLWIDTH
350
BF0C
  3
SORTENTS
350
BEBC
  3
XCLIPFRAME
350
BF0E
  0
XRECORD
  5
BF11
102
{ACAD_REACTORS
330
C
102
}
330
C
100
AcDbXrecord
280
     1
  1
DWGPROPS COOKIE
  2

  3

  4

  6

  7

  8
tronnguyen
  9

300
=
301
=
302
=
303
=
304
=
305
=
306
=
307
=
308
=
309
=
 40
0.0048148148148148
 41
2460286.6225
 42
2460286.637962963
  1

 90
        0
  0
DICTIONARY
  5
200
102
{ACAD_REACTORS
330
1FF
102
}
330
1FF
100
AcDbDictionary
281
     1
  0
XRECORD
  5
BE68
102
{ACAD_REACTORS
330
1CE
102
}
330
1CE
100
AcDbXrecord
280
     1
340
1F
  0
XRECORD
  5
BE71
102
{ACAD_REACTORS
330
BE13
102
}
330
BE13
100
AcDbXrecord
280
     1
340
D2
  0
XRECORD
  5
BE74
102
{ACAD_REACTORS
330
BE15
102
}
330
BE15
100
AcDbXrecord
280
     1
340
D6
  0
ACDBDETAILVIEWSTYLE
  5
21C
102
{ACAD_XDICTIONARY
360
BF50
102
}
102
{ACAD_REACTORS
330
21B
102
}
330
21B
100
AcDbModelDocViewStyle
 70
     0
  3
Metric50
290
     0
100
AcDbDetailViewStyle
 70
     0
 71
     0
 90
        3
 71
     1
340
11
 40
5.0
340
0
 40
5.0
300

 40
0.0
280
     1
 71
     2
340
16
 90
       25
 71
     3
340
11
 40
5.0
 90
        0
 40
15.0
 90
        1
300
%<\AcVar ViewDetailId>% (%<\AcVar ViewScale \f "%sn">%)
 71
     4
340
16
 90
       25
340
16
 90
       25
280
     0
  0
LAYOUT
  5
D3
102
{ACAD_XDICTIONARY
360
BF15
102
}
102
{ACAD_REACTORS
330
1A
102
}
330
1A
100
AcDbPlotSettings
  1

  2
C:\Documents and Settings\basas\Application Data\Autodesk\AutoCAD 2005\R16.1\enu\plotters\Default Windows System Printer.pc3
  4

  6

 40
0.0
 41
0.0
 42
0.0
 43
0.0
 44
0.0
 45
0.0
 46
0.0
 47
0.0
 48
0.0
 49
0.0
140
0.0
141
0.0
142
1.0
143
1.0
 70
   688
 72
     0
 73
     0
 74
     5
  7

 75
    16
147
1.0
148
0.0
149
0.0
100
AcDbLayout
  1
Layout1
 70
     1
 71
     1
 10
0.0
 20
0.0
 11
12.0
 21
9.0
 12
0.0
 22
0.0
 32
0.0
 14
0.0
 24
0.0
 34
0.0
 15
0.0
 25
0.0
 35
0.0
146
0.0
 13
0.0
 23
0.0
 33
0.0
 16
1.0
 26
0.0
 36
0.0
 17
0.0
 27
1.0
 37
0.0
 76
     0
330
D2
  0
LAYOUT
  5
D7
102
{ACAD_XDICTIONARY
360
BF17
102
}
102
{ACAD_REACTORS
330
1A
102
}
330
1A
100
AcDbPlotSettings
  1

  2
C:\Documents and Settings\basas\Application Data\Autodesk\AutoCAD 2005\R16.1\enu\plotters\Default Windows System Printer.pc3
  4

  6

 40
0.0
 41
0.0
 42
0.0
 43
0.0
 44
0.0
 45
0.0
 46
0.0
 47
0.0
 48
0.0
 49
0.0
140
0.0
141
0.0
142
1.0
143
1.0
 70
   688
 72
     0
 73
     0
 74
     5
  7

 75
    16
147
1.0
148
0.0
149
0.0
100
AcDbLayout
  1
Layout2
 70
     1
 71
     2
 10
0.0
 20
0.0
 11
12.0
 21
9.0
 12
0.0
 22
0.0
 32
0.0
 14
0.0
 24
0.0
 34
0.0
 15
0.0
 25
0.0
 35
0.0
146
0.0
 13
0.0
 23
0.0
 33
0.0
 16
1.0
 26
0.0
 36
0.0
 17
0.0
 27
1.0
 37
0.0
 76
     0
330
D6
  0
LAYOUT
  5
22
102
{ACAD_XDICTIONARY
360
BF12
102
}
102
{ACAD_REACTORS
330
1A
102
}
330
1A
100
AcDbPlotSettings
  1

  2
none_device
  4
ISO_A4_(210.00_x_297.00_MM)
  6

 40
7.5
 41
20.0
 42
7.5
 43
20.0
 44
210.0
 45
297.0
 46
11.54999923706054
 47
-13.65000009536743
 48
0.0
 49
0.0
140
0.0
141
0.0
142
1.0
143
8.704084754739808
 70
 11952
 72
     1
 73
     0
 74
     0
  7

 75
     0
147
0.1148885871608098
148
0.0
149
0.0
100
AcDbLayout
  1
Model
 70
     1
 71
     0
 10
0.0
 20
0.0
 11
12.0
 21
9.0
 12
0.0
 22
0.0
 32
0.0
 14
0.0
 24
0.0
 34
0.0
 15
0.0
 25
0.0
 35
0.0
146
0.0
 13
0.0
 23
0.0
 33
0.0
 16
1.0
 26
0.0
 36
0.0
 17
0.0
 27
1.0
 37
0.0
 76
     0
330
1F
331
EA
1001
ACAD_PSEXT
1000
None
1000
None
1000
Not applicable
1000
The layout will not be plotted unless a new plotter configuration name is selected.
1070
     0
  0
MATERIAL
  5
ED
102
{ACAD_XDICTIONARY
360
1F9
102
}
102
{ACAD_REACTORS
330
6A
102
}
330
6A
100
AcDbMaterial
  1
ByBlock
  0
MATERIAL
  5
EC
102
{ACAD_XDICTIONARY
360
1F7
102
}
102
{ACAD_REACTORS
330
6A
102
}
330
6A
100
AcDbMaterial
  1
ByLayer
  0
MATERIAL
  5
EE
102
{ACAD_XDICTIONARY
360
173
102
}
102
{ACAD_REACTORS
330
6A
102
}
330
6A
100
AcDbMaterial
  1
Global
 43
0.0007999999797903
 43
0.0
 43
0.0
 43
0.0
 43
0.0
 43
0.0007999999797903
 43
0.0
 43
0.0
 43
0.0
 43
0.0
 43
1.0
 43
0.0
 43
0.0
 43
0.0
 43
0.0
 43
1.0
 49
0.0007999999797903
 49
0.0
 49
0.0
 49
0.0
 49
0.0
 49
0.0007999999797903
 49
0.0
 49
0.0
 49
0.0
 49
0.0
 49
1.0
 49
0.0
 49
0.0
 49
0.0
 49
0.0
 49
1.0
142
0.0007999999797903
142
0.0
142
0.0
142
0.0
142
0.0
142
0.0007999999797903
142
0.0
142
0.0
142
0.0
142
0.0
142
1.0
142
0.0
142
0.0
142
0.0
142
0.0
142
1.0
144
0.0007999999797903
144
0.0
144
0.0
144
0.0
144
0.0
144
0.0007999999797903
144
0.0
144
0.0
144
0.0
144
0.0
144
1.0
144
0.0
144
0.0
144
0.0
144
0.0
144
1.0
1001
ACAD
1070
    -1
1070
     3
1070
     0
1000

1071
        0
1070
     0
  0
MLEADERSTYLE
  5
12E
102
{ACAD_XDICTIONARY
360
BF3C
102
}
102
{ACAD_REACTORS
330
12D
102
}
330
12D
100
AcDbMLeaderStyle
170
     2
171
     1
172
     0
 90
        2
 40
0.0
 41
0.0
173
     1
 91
-1056964608
340
14
 92
       -2
290
     1
 42
2.0
291
     1
 43
8.0
  3
Standard
 44
4.0
300

342
11
174
     1
178
     1
175
     1
176
     0
 93
-1056964608
 45
4.0
292
     0
297
     0
 46
4.0
 94
-1056964608
 47
1.0
 49
1.0
140
1.0
293
     1
141
0.0
294
     1
177
     0
142
1.0
295
     0
296
     0
143
3.75
1001
ACAD_MLEADERVER
1070
     2
  0
MLINESTYLE
  5
18
102
{ACAD_REACTORS
330
17
102
}
330
17
100
AcDbMlineStyle
  2
STANDARD
 70
     0
  3

 62
   256
 51
90.0
 52
90.0
 71
     2
 49
0.5
 62
   256
  6
BYLAYER
 49
-0.5
 62
   256
  6
BYLAYER
  0
ACDBPLACEHOLDER
  5
F
102
{ACAD_REACTORS
330
E
102
}
330
E
  0
SCALE
  5
10D
102
{ACAD_REACTORS
330
10C
102
}
330
10C
100
AcDbScale
 70
     0
300
1:1
140
1.0
141
1.0
290
     1
  0
SCALE
  5
1BE
102
{ACAD_REACTORS
330
10C
102
}
330
10C
100
AcDbScale
 70
     0
300
1:2
140
1.0
141
2.0
290
     0
  0
SCALE
  5
1BF
102
{ACAD_REACTORS
330
10C
102
}
330
10C
100
AcDbScale
 70
     0
300
1:4
140
1.0
141
4.0
290
     0
  0
SCALE
  5
1C0
102
{ACAD_REACTORS
330
10C
102
}
330
10C
100
AcDbScale
 70
     0
300
1:5
140
1.0
141
5.0
290
     0
  0
SCALE
  5
1C1
102
{ACAD_REACTORS
330
10C
102
}
330
10C
100
AcDbScale
 70
     0
300
1:8
140
1.0
141
8.0
290
     0
  0
SCALE
  5
1C2
102
{ACAD_REACTORS
330
10C
102
}
330
10C
100
AcDbScale
 70
     0
300
1:10
140
1.0
141
10.0
290
     0
  0
SCALE
  5
1C3
102
{ACAD_REACTORS
330
10C
102
}
330
10C
100
AcDbScale
 70
     0
300
1:16
140
1.0
141
16.0
290
     0
  0
SCALE
  5
1C4
102
{ACAD_REACTORS
330
10C
102
}
330
10C
100
AcDbScale
 70
     0
300
1:20
140
1.0
141
20.0
290
     0
  0
SCALE
  5
1C5
102
{ACAD_REACTORS
330
10C
102
}
330
10C
100
AcDbScale
 70
     0
300
1:30
140
1.0
141
30.0
290
     0
  0
SCALE
  5
1C6
102
{ACAD_REACTORS
330
10C
102
}
330
10C
100
AcDbScale
 70
     0
300
1:40
140
1.0
141
40.0
290
     0
  0
SCALE
  5
1C7
102
{ACAD_REACTORS
330
10C
102
}
330
10C
100
AcDbScale
 70
     0
300
1:50
140
1.0
141
50.0
290
     0
  0
SCALE
  5
1C8
102
{ACAD_REACTORS
330
10C
102
}
330
10C
100
AcDbScale
 70
     0
300
1:100
140
1.0
141
100.0
290
     0
  0
SCALE
  5
1C9
102
{ACAD_REACTORS
330
10C
102
}
330
10C
100
AcDbScale
 70
     0
300
2:1
140
2.0
141
1.0
290
     0
  0
SCALE
  5
1CA
102
{ACAD_REACTORS
330
10C
102
}
330
10C
100
AcDbScale
 70
     0
300
4:1
140
4.0
141
1.0
290
     0
  0
SCALE
  5
1CB
102
{ACAD_REACTORS
330
10C
102
}
330
10C
100
AcDbScale
 70
     0
300
8:1
140
8.0
141
1.0
290
     0
  0
SCALE
  5
1CC
102
{ACAD_REACTORS
330
10C
102
}
330
10C
100
AcDbScale
 70
     0
300
10:1
140
10.0
141
1.0
290
     0
  0
SCALE
  5
1CD
102
{ACAD_REACTORS
330
10C
102
}
330
10C
100
AcDbScale
 70
     0
300
100:1
140
100.0
141
1.0
290
     0
  0
ACDBSECTIONVIEWSTYLE
  5
21A
102
{ACAD_XDICTIONARY
360
BF4E
102
}
102
{ACAD_REACTORS
330
219
102
}
330
219
100
AcDbModelDocViewStyle
 70
     0
  3
Metric50
290
     0
100
AcDbSectionViewStyle
 70
     0
 71
     0
 90
      102
 71
     1
340
11
 40
5.0
340
0
340
0
 40
5.0
300
I, O, Q, S, X, Z
 40
10.0
 90
        0
 40
2.5
 90
        0
 71
     2
340
16
 90
       25
340
16
 90
       50
 40
5.0
 40
2.5
 40
5.0
 71
     3
340
11
 40
5.0
 90
        0
 40
15.0
 90
        1
300
%<\AcVar ViewSectionStartId>%-%<\AcVar ViewSectionEndId>% (%<\AcVar ViewScale \f "%sn">%)
 71
     4
300
ANSI31
 40
1.0
 90
        0
290
     0
290
     0
 90
        6
 40
0.0
 40
1.570796326794896
 40
0.2617993877991494
 40
1.308996938995747
 40
-0.2617993877991494
 40
1.832595714594046
  0
TABLESTYLE
  5
7F
102
{ACAD_XDICTIONARY
360
162
102
}
102
{ACAD_REACTORS
330
7E
102
}
330
7E
100
AcDbTableStyle
  3
Standard
 70
     0
 71
     0
 40
1.5
 41
1.5
280
     0
281
     0
  7
Standard
140
4.5
170
     2
 62
     0
 63
     7
283
     0
274
    -2
284
     1
 64
     0
275
    -2
285
     1
 65
     0
276
    -2
286
     1
 66
     0
277
    -2
287
     1
 67
     0
278
    -2
288
     1
 68
     0
279
    -2
289
     1
 69
     0
  7
Standard
140
6.0
170
     5
 62
     0
 63
     7
283
     0
274
    -2
284
     1
 64
     0
275
    -2
285
     1
 65
     0
276
    -2
286
     1
 66
     0
277
    -2
287
     1
 67
     0
278
    -2
288
     1
 68
     0
279
    -2
289
     1
 69
     0
  7
Standard
140
4.5
170
     5
 62
     0
 63
     7
283
     0
274
    -2
284
     1
 64
     0
275
    -2
285
     1
 65
     0
276
    -2
286
     1
 66
     0
277
    -2
287
     1
 67
     0
278
    -2
288
     1
 68
     0
279
    -2
289
     1
 69
     0
  0
VISUALSTYLE
  5
F5
102
{ACAD_XDICTIONARY
360
BF26
102
}
102
{ACAD_REACTORS
330
EF
102
}
330
EF
100
AcDbVisualStyle
  2
2dWireframe
 70
     4
 71
     0
 72
     2
 73
     1
 90
        0
 40
-0.6
 41
-30.0
 62
     5
 63
     7
 74
     1
 91
        4
 64
     7
 65
   257
 75
     1
175
     1
 42
1.0
 92
        0
 66
   257
 43
1.0
 76
     1
 77
     6
 78
     2
 67
     7
 79
     5
170
     0
171
     0
290
     0
174
     0
 93
        1
 44
0.0
173
     0
291
     0
 45
0.0
1001
ACAD
1000
AcDbSavedByObjectVersion
1070
     0
  0
VISUALSTYLE
  5
F4
102
{ACAD_XDICTIONARY
360
BF24
102
}
102
{ACAD_REACTORS
330
EF
102
}
330
EF
100
AcDbVisualStyle
  2
Basic
 70
     7
 71
     1
 72
     0
 73
     1
 90
        0
 40
-0.6
 41
-30.0
 62
     5
 63
     7
 74
     0
 91
        4
 64
     7
 65
   257
 75
     1
175
     1
 42
1.0
 92
        8
 66
     7
 43
1.0
 76
     1
 77
     6
 78
     2
 67
     7
 79
     5
170
     0
171
     0
290
     0
174
     0
 93
        1
 44
0.0
173
     0
291
     1
 45
0.0
1001
ACAD
1000
AcDbSavedByObjectVersion
1070
     0
  0
VISUALSTYLE
  5
FB
102
{ACAD_XDICTIONARY
360
BF32
102
}
102
{ACAD_REACTORS
330
EF
102
}
330
EF
100
AcDbVisualStyle
  2
Brighten
 70
    12
 71
     2
 72
     2
 73
     1
 90
        0
 40
-0.6
 41
-30.0
 62
     5
 63
     7
 74
     1
 91
        4
 64
     7
 65
   257
 75
     1
175
     1
 42
1.0
 92
        8
 66
     7
 43
1.0
 76
     1
 77
     6
 78
     2
 67
     7
 79
     5
170
     0
171
     0
290
     0
174
     0
 93
        1
 44
50.0
173
     0
291
     1
 45
0.0
1001
ACAD
1000
AcDbSavedByObjectVersion
1070
     0
  0
VISUALSTYLE
  5
FF
102
{ACAD_XDICTIONARY
360
BF3A
102
}
102
{ACAD_REACTORS
330
EF
102
}
330
EF
100
AcDbVisualStyle
  2
ColorChange
 70
    16
 71
     2
 72
     2
 73
     3
 90
        0
 40
-0.6
 41
-30.0
 62
     5
 63
     8
 74
     1
 91
        4
 64
     7
 65
   257
 75
     1
175
     1
 42
1.0
 92
        8
 66
     8
 43
1.0
 76
     1
 77
     6
 78
     2
 67
     7
 79
     5
170
     0
171
     0
290
     0
174
     0
 93
        1
 44
0.0
173
     0
291
     1
 45
0.0
1001
ACAD
1000
AcDbSavedByObjectVersion
1070
     0
  0
VISUALSTYLE
  5
F8
102
{ACAD_XDICTIONARY
360
BF2C
102
}
102
{ACAD_REACTORS
330
EF
102
}
330
EF
100
AcDbVisualStyle
  2
Conceptual
 70
     9
 71
     3
 72
     2
 73
     1
 90
        0
 40
-0.6
 41
-30.0
 62
     5
 63
     7
 74
     2
 91
        2
 64
     7
 65
   257
 75
     1
175
     1
 42
40.0
 92
        8
 66
     7
 43
1.0
 76
     1
 77
     6
 78
     2
 67
     7
 79
     3
170
     0
171
     0
290
     0
174
     0
 93
        1
 44
0.0
173
     0
291
     0
 45
0.0
1001
ACAD
1000
AcDbSavedByObjectVersion
1070
     0
  0
VISUALSTYLE
  5
FA
102
{ACAD_XDICTIONARY
360
BF30
102
}
102
{ACAD_REACTORS
330
EF
102
}
330
EF
100
AcDbVisualStyle
  2
Dim
 70
    11
 71
     2
 72
     2
 73
     1
 90
        0
 40
-0.6
 41
-30.0
 62
     5
 63
     7
 74
     1
 91
        4
 64
     7
 65
   257
 75
     1
175
     1
 42
1.0
 92
        8
 66
     7
 43
1.0
 76
     1
 77
     6
 78
     2
 67
     7
 79
     5
170
     0
171
     0
290
     0
174
     0
 93
        1
 44
-50.0
173
     0
291
     1
 45
0.0
1001
ACAD
1000
AcDbSavedByObjectVersion
1070
     0
  0
VISUALSTYLE
  5
1E6
102
{ACAD_XDICTIONARY
360
BF42
102
}
102
{ACAD_REACTORS
330
EF
102
}
330
EF
100
AcDbVisualStyle
  2
EdgeColorOff
 70
    22
 71
     2
 72
     2
 73
     0
 90
        0
 40
-0.6
 41
-30.0
 62
     5
 63
     7
 74
     1
 91
        4
 64
     7
 65
   257
 75
     1
175
     1
 42
1.0
 92
        8
 66
     7
 43
1.0
 76
     1
 77
     6
 78
     2
 67
     7
 79
     5
170
     0
171
     0
290
     0
174
     0
 93
        1
 44
0.0
173
     0
291
     1
 45
0.0
1001
ACAD
1000
AcDbSavedByObjectVersion
1070
     0
  0
VISUALSTYLE
  5
FE
102
{ACAD_XDICTIONARY
360
BF38
102
}
102
{ACAD_REACTORS
330
EF
102
}
330
EF
100
AcDbVisualStyle
  2
Facepattern
 70
    15
 71
     2
 72
     2
 73
     1
 90
        0
 40
-0.6
 41
-30.0
 62
     5
 63
     7
 74
     1
 91
        4
 64
     7
 65
   257
 75
     1
175
     1
 42
1.0
 92
        8
 66
     7
 43
1.0
 76
     1
 77
     6
 78
     2
 67
     7
 79
     5
170
     0
171
     0
290
     0
174
     0
 93
        1
 44
0.0
173
     0
291
     1
 45
0.0
1001
ACAD
1000
AcDbSavedByObjectVersion
1070
     0
  0
VISUALSTYLE
  5
F0
102
{ACAD_XDICTIONARY
360
BF1C
102
}
102
{ACAD_REACTORS
330
EF
102
}
330
EF
100
AcDbVisualStyle
  2
Flat
 70
     0
 71
     2
 72
     1
 73
     1
 90
        2
 40
-0.6
 41
30.0
 62
     5
 63
     7
 74
     0
 91
        0
 64
     7
 65
   257
 75
     1
175
     1
 42
1.0
 92
        8
 66
     7
 43
1.0
 76
     1
 77
     6
 78
     2
 67
     7
 79
     5
170
     0
171
     0
290
     0
174
     0
 93
       13
 44
0.0
173
     0
291
     1
 45
0.0
1001
ACAD
1000
AcDbSavedByObjectVersion
1070
     0
  0
VISUALSTYLE
  5
F1
102
{ACAD_XDICTIONARY
360
BF1E
102
}
102
{ACAD_REACTORS
330
EF
102
}
330
EF
100
AcDbVisualStyle
  2
FlatWithEdges
 70
     1
 71
     2
 72
     1
 73
     1
 90
        2
 40
-0.6
 41
30.0
 62
     5
 63
     7
 74
     1
 91
        0
 64
     7
 65
   257
 75
     1
175
     1
 42
1.0
 92
        0
 66
   257
 43
1.0
 76
     1
 77
     6
 78
     2
 67
     7
 79
     5
170
     0
171
     0
290
     0
174
     0
 93
       13
 44
0.0
173
     0
291
     1
 45
0.0
1001
ACAD
1000
AcDbSavedByObjectVersion
1070
     0
  0
VISUALSTYLE
  5
F2
102
{ACAD_XDICTIONARY
360
BF20
102
}
102
{ACAD_REACTORS
330
EF
102
}
330
EF
100
AcDbVisualStyle
  2
Gouraud
 70
     2
 71
     2
 72
     2
 73
     1
 90
        2
 40
-0.6
 41
30.0
 62
     5
 63
     7
 74
     0
 91
        0
 64
     7
 65
   257
 75
     1
175
     1
 42
1.0
 92
        0
 66
     7
 43
1.0
 76
     1
 77
     6
 78
     2
 67
     7
 79
     5
170
     0
171
     0
290
     0
174
     0
 93
       13
 44
0.0
173
     0
291
     1
 45
0.0
1001
ACAD
1000
AcDbSavedByObjectVersion
1070
     0
  0
VISUALSTYLE
  5
F3
102
{ACAD_XDICTIONARY
360
BF22
102
}
102
{ACAD_REACTORS
330
EF
102
}
330
EF
100
AcDbVisualStyle
  2
GouraudWithEdges
 70
     3
 71
     2
 72
     2
 73
     1
 90
        2
 40
-0.6
 41
30.0
 62
     5
 63
     7
 74
     1
 91
        0
 64
     7
 65
   257
 75
     1
175
     1
 42
1.0
 92
        0
 66
   257
 43
1.0
 76
     1
 77
     6
 78
     2
 67
     7
 79
     5
170
     0
171
     0
290
     0
174
     0
 93
       13
 44
0.0
173
     0
291
     1
 45
0.0
1001
ACAD
1000
AcDbSavedByObjectVersion
1070
     0
  0
VISUALSTYLE
  5
F7
102
{ACAD_XDICTIONARY
360
BF2A
102
}
102
{ACAD_REACTORS
330
EF
102
}
330
EF
100
AcDbVisualStyle
  2
Hidden
 70
     6
 71
     1
 72
     2
 73
     2
 90
        0
 40
-0.6
 41
-30.0
 62
     5
 63
     7
 74
     2
 91
        2
 64
     7
 65
   257
 75
     2
175
     1
 42
40.0
 92
        0
 66
   257
 43
1.0
 76
     1
 77
     6
 78
     2
 67
     7
 79
     3
170
     0
171
     0
290
     0
174
     0
 93
        1
 44
0.0
173
     0
291
     0
 45
0.0
1001
ACAD
1000
AcDbSavedByObjectVersion
1070
     0
  0
VISUALSTYLE
  5
1E4
102
{ACAD_XDICTIONARY
360
BF3E
102
}
102
{ACAD_REACTORS
330
EF
102
}
330
EF
100
AcDbVisualStyle
  2
JitterOff
 70
    20
 71
     2
 72
     2
 73
     0
 90
        0
 40
-0.6
 41
-30.0
 62
     5
 63
     7
 74
     1
 91
        4
 64
     7
 65
   257
 75
     1
175
     1
 42
1.0
 92
       10
 66
     7
 43
1.0
 76
     1
 77
     6
 78
     2
 67
     7
 79
     5
170
     0
171
     0
290
     0
174
     0
 93
        1
 44
0.0
173
     0
291
     1
 45
0.0
1001
ACAD
1000
AcDbSavedByObjectVersion
1070
     0
  0
VISUALSTYLE
  5
FD
102
{ACAD_XDICTIONARY
360
BF36
102
}
102
{ACAD_REACTORS
330
EF
102
}
330
EF
100
AcDbVisualStyle
  2
Linepattern
 70
    14
 71
     2
 72
     2
 73
     1
 90
        0
 40
-0.6
 41
-30.0
 62
     5
 63
     7
 74
     1
 91
        4
 64
     7
 65
   257
 75
     7
175
     7
 42
1.0
 92
        8
 66
     7
 43
1.0
 76
     1
 77
     6
 78
     2
 67
     7
 79
     5
170
     0
171
     0
290
     0
174
     0
 93
        1
 44
0.0
173
     0
291
     1
 45
0.0
1001
ACAD
1000
AcDbSavedByObjectVersion
1070
     0
  0
VISUALSTYLE
  5
1E5
102
{ACAD_XDICTIONARY
360
BF40
102
}
102
{ACAD_REACTORS
330
EF
102
}
330
EF
100
AcDbVisualStyle
  2
OverhangOff
 70
    21
 71
     2
 72
     2
 73
     0
 90
        0
 40
-0.6
 41
-30.0
 62
     5
 63
     7
 74
     1
 91
        4
 64
     7
 65
   257
 75
     1
175
     1
 42
1.0
 92
        9
 66
     7
 43
1.0
 76
     1
 77
     6
 78
     2
 67
     7
 79
     5
170
     0
171
     0
290
     0
174
     0
 93
        1
 44
0.0
173
     0
291
     1
 45
0.0
1001
ACAD
1000
AcDbSavedByObjectVersion
1070
     0
  0
VISUALSTYLE
  5
F9
102
{ACAD_XDICTIONARY
360
BF2E
102
}
102
{ACAD_REACTORS
330
EF
102
}
330
EF
100
AcDbVisualStyle
  2
Realistic
 70
     8
 71
     2
 72
     2
 73
     0
 90
        2
 40
-0.6
 41
30.0
 62
     5
 63
     7
 74
     0
 91
        0
 64
     7
 65
   257
 75
     1
175
     1
 42
1.0
 92
        8
 66
   257
 43
1.0
 76
     1
 77
     6
 78
     2
 67
     7
 79
     3
170
     0
171
     0
290
     0
174
     0
 93
       13
 44
0.0
173
     0
291
     0
 45
0.0
1001
ACAD
1000
AcDbSavedByObjectVersion
1070
     0
  0
VISUALSTYLE
  5
1F3
102
{ACAD_XDICTIONARY
360
BF4C
102
}
102
{ACAD_REACTORS
330
EF
102
}
330
EF
100
AcDbVisualStyle
  2
Shaded
 70
    27
 71
     2
 72
     2
 73
     1
 90
        2
 40
-0.6
 41
30.0
 62
     5
 63
     7
 74
     0
 91
        4
 64
     7
 65
   257
 75
     1
175
     1
 42
1.0
 92
        8
 66
   257
 43
1.0
 76
     1
 77
     6
 78
     2
 67
     8
 79
     3
170
     0
171
     0
290
     0
174
     0
 93
        5
 44
0.0
173
     0
291
     0
 45
0.0
1001
ACAD
1000
AcDbSavedByObjectVersion
1070
     0
  0
VISUALSTYLE
  5
1F2
102
{ACAD_XDICTIONARY
360
BF4A
102
}
102
{ACAD_REACTORS
330
EF
102
}
330
EF
100
AcDbVisualStyle
  2
Shaded with edges
 70
    26
 71
     2
 72
     2
 73
     1
 90
        2
 40
-0.6
 41
30.0
 62
     5
 63
     7
 74
     1
 91
        2
 64
     7
 65
   257
 75
     2
175
     1
 42
1.0
 92
        8
 66
   257
 43
1.0
 76
     1
 77
     6
 78
     2
 67
     7
 79
     3
170
     0
171
     0
290
     0
174
     0
 93
        5
 44
0.0
173
     0
291
     0
 45
0.0
1001
ACAD
1000
AcDbSavedByObjectVersion
1070
     0
  0
VISUALSTYLE
  5
1EF
102
{ACAD_XDICTIONARY
360
BF44
102
}
102
{ACAD_REACTORS
330
EF
102
}
330
EF
100
AcDbVisualStyle
  2
Shades of Gray
 70
    23
 71
     2
 72
     2
 73
     3
 90
        0
 40
-0.6
 41
-30.0
 62
     5
 63
     7
 74
     2
 91
        2
 64
     7
 65
     7
 75
     1
175
     1
 42
40.0
 92
        8
 66
     7
 43
1.0
 76
     1
 77
     6
 78
     2
 67
     7
 79
     3
170
     0
171
     0
290
     0
174
     0
 93
        1
 44
0.0
173
     0
291
     0
 45
0.0
1001
ACAD
1000
AcDbSavedByObjectVersion
1070
     0
  0
VISUALSTYLE
  5
1F0
102
{ACAD_XDICTIONARY
360
BF46
102
}
102
{ACAD_REACTORS
330
EF
102
}
330
EF
100
AcDbVisualStyle
  2
Sketchy
 70
    24
 71
     1
 72
     2
 73
     2
 90
        0
 40
-0.6
 41
-30.0
 62
     5
 63
     7
 74
     2
 91
        2
 64
     7
 65
     7
 75
     1
175
     1
 42
40.0
 92
       11
 66
     7
 43
1.0
 76
     1
 77
     6
 78
     2
 67
     7
 79
     6
170
     0
171
     0
290
     0
174
     0
 93
        1
 44
0.0
173
     0
291
     0
 45
0.0
1001
ACAD
1000
AcDbSavedByObjectVersion
1070
     0
  0
VISUALSTYLE
  5
FC
102
{ACAD_XDICTIONARY
360
BF34
102
}
102
{ACAD_REACTORS
330
EF
102
}
330
EF
100
AcDbVisualStyle
  2
Thicken
 70
    13
 71
     2
 72
     2
 73
     1
 90
        0
 40
-0.6
 41
-30.0
 62
     5
 63
     7
 74
     1
 91
        4
 64
     7
 65
   257
 75
     1
175
     1
 42
1.0
 92
       12
 66
     7
 43
1.0
 76
     1
 77
     6
 78
     2
 67
     7
 79
     5
170
     0
171
     0
290
     0
174
     0
 93
        1
 44
0.0
173
     0
291
     1
 45
0.0
1001
ACAD
1000
AcDbSavedByObjectVersion
1070
     0
  0
VISUALSTYLE
  5
F6
102
{ACAD_XDICTIONARY
360
BF28
102
}
102
{ACAD_REACTORS
330
EF
102
}
330
EF
100
AcDbVisualStyle
  2
Wireframe
 70
     5
 71
     0
 72
     2
 73
     0
 90
        0
 40
-0.6
 41
-30.0
 62
     5
 63
     7
 74
     1
 91
        4
 64
     7
 65
   257
 75
     1
175
     1
 42
1.0
 92
        0
 66
   257
 43
1.0
 76
     1
 77
     6
 78
     2
 67
     7
 79
     3
170
     0
171
     0
290
     0
174
     0
 93
        1
 44
0.0
173
     0
291
     0
 45
0.0
1001
ACAD
1000
AcDbSavedByObjectVersion
1070
     0
  0
VISUALSTYLE
  5
1F1
102
{ACAD_XDICTIONARY
360
BF48
102
}
102
{ACAD_REACTORS
330
EF
102
}
330
EF
100
AcDbVisualStyle
  2
X-Ray
 70
    25
 71
     2
 72
     2
 73
     1
 90
        1
 40
0.5
 41
-30.0
 62
     5
 63
     7
 74
     1
 91
        0
 64
     7
 65
   257
 75
     1
175
     1
 42
1.0
 92
        8
 66
     7
 43
1.0
 76
     1
 77
     6
 78
     2
 67
     7
 79
     3
170
     0
171
     0
290
     0
174
     0
 93
       13
 44
0.0
173
     0
291
     0
 45
0.0
1001
ACAD
1000
AcDbSavedByObjectVersion
1070
     0
  0
DICTIONARYVAR
  5
146
102
{ACAD_REACTORS
330
5E
102
}
330
5E
100
DictionaryVariables
280
     0
  1
1:1
  0
DICTIONARYVAR
  5
259
102
{ACAD_REACTORS
330
5E
102
}
330
5E
100
DictionaryVariables
280
     0
  1
3.500000
  0
DICTIONARYVAR
  5
25A
102
{ACAD_REACTORS
330
5E
102
}
330
5E
100
DictionaryVariables
280
     0
  1
acadiso.lin
  0
DICTIONARYVAR
  5
145
102
{ACAD_REACTORS
330
5E
102
}
330
5E
100
DictionaryVariables
280
     0
  1
STANDARD
  0
DICTIONARYVAR
  5
84
102
{ACAD_REACTORS
330
5E
102
}
330
5E
100
DictionaryVariables
280
     0
  1
STANDARD
  0
DICTIONARYVAR
  5
227
102
{ACAD_REACTORS
330
5E
102
}
330
5E
100
DictionaryVariables
280
     0
  1
Metric50
  0
DICTIONARYVAR
  5
228
102
{ACAD_REACTORS
330
5E
102
}
330
5E
100
DictionaryVariables
280
     0
  1
Metric50
  0
DICTIONARYVAR
  5
5F
102
{ACAD_REACTORS
330
5E
102
}
330
5E
100
DictionaryVariables
280
     0
  1
2
  0
DICTIONARYVAR
  5
63
102
{ACAD_REACTORS
330
5E
102
}
330
5E
100
DictionaryVariables
280
     0
  1
1
  0
DICTIONARYVAR
  5
BEBD
102
{ACAD_REACTORS
330
5E
102
}
330
5E
100
DictionaryVariables
280
     0
  1
0
  0
DICTIONARYVAR
  5
1AE
102
{ACAD_REACTORS
330
5E
102
}
330
5E
100
DictionaryVariables
280
     0
  1
0
  0
DICTIONARYVAR
  5
1AF
102
{ACAD_REACTORS
330
5E
102
}
330
5E
100
DictionaryVariables
280
     0
  1
0
  0
DICTIONARYVAR
  5
BEBB
102
{ACAD_REACTORS
330
5E
102
}
330
5E
100
DictionaryVariables
280
     0
  1
2
  0
DICTIONARYVAR
  5
BEBA
102
{ACAD_REACTORS
330
5E
102
}
330
5E
100
DictionaryVariables
280
     0
  1
1
  0
DICTIONARYVAR
  5
BF0D
102
{ACAD_REACTORS
330
5E
102
}
330
5E
100
DictionaryVariables
280
     0
  1
80.000000
  0
DICTIONARYVAR
  5
BF0C
102
{ACAD_REACTORS
330
5E
102
}
330
5E
100
DictionaryVariables
280
     0
  1
5.000000
  0
DICTIONARYVAR
  5
BEBC
102
{ACAD_REACTORS
330
5E
102
}
330
5E
100
DictionaryVariables
280
     0
  1
127
  0
DICTIONARYVAR
  5
BF0E
102
{ACAD_REACTORS
330
5E
102
}
330
5E
100
DictionaryVariables
280
     0
  1
2
  0
DICTIONARY
  5
BF50
330
21C
100
AcDbDictionary
280
     1
281
     1
  3
ACAD_XREC_ROUNDTRIP
360
BF51
  0
DICTIONARY
  5
BF15
330
D3
100
AcDbDictionary
280
     1
281
     1
  3
ACAD_XREC_ROUNDTRIP
360
BF16
  0
DICTIONARY
  5
BF17
330
D7
100
AcDbDictionary
280
     1
281
     1
  3
ACAD_XREC_ROUNDTRIP
360
BF18
  0
DICTIONARY
  5
BF12
330
22
100
AcDbDictionary
280
     1
281
     1
  3
ACAD_XREC_ROUNDTRIP
360
BF13
  0
DICTIONARY
  5
1F9
330
ED
100
AcDbDictionary
280
     1
281
     1
  3
ACAD_XREC_ROUNDTRIP
360
BF1A
  3
FBXASSET
360
1FA
  0
DICTIONARY
  5
1F7
330
EC
100
AcDbDictionary
280
     1
281
     1
  3
ACAD_XREC_ROUNDTRIP
360
BF19
  3
FBXASSET
360
1F8
  0
DICTIONARY
  5
173
330
EE
100
AcDbDictionary
280
     1
281
     1
  3
ACAD_XREC_ROUNDTRIP
360
BF1B
  3
BUMPTILE
360
175
  3
DIFFUSETILE
360
174
  3
FBXASSET
360
1FB
  3
OPACITYTILE
360
176
  3
REFLECTIONTILE
360
177
  0
DICTIONARY
  5
BF3C
330
12E
100
AcDbDictionary
280
     1
281
     1
  3
ACAD_XREC_ROUNDTRIP
360
BF3D
  0
DICTIONARY
  5
BF4E
330
21A
100
AcDbDictionary
280
     1
281
     1
  3
ACAD_XREC_ROUNDTRIP
360
BF4F
  0
DICTIONARY
  5
162
330
7F
100
AcDbDictionary
280
     1
281
     1
  3
ACAD_ROUNDTRIP_2008_TABLESTYLE_CELLSTYLEMAP
360
BF0F
  3
ACAD_XREC_ROUNDTRIP
360
BF14
  0
DICTIONARY
  5
BF26
330
F5
100
AcDbDictionary
280
     1
281
     1
  3
ACAD_XREC_ROUNDTRIP
360
BF27
  0
DICTIONARY
  5
BF24
330
F4
100
AcDbDictionary
280
     1
281
     1
  3
ACAD_XREC_ROUNDTRIP
360
BF25
  0
DICTIONARY
  5
BF32
330
FB
100
AcDbDictionary
280
     1
281
     1
  3
ACAD_XREC_ROUNDTRIP
360
BF33
  0
DICTIONARY
  5
BF3A
330
FF
100
AcDbDictionary
280
     1
281
     1
  3
ACAD_XREC_ROUNDTRIP
360
BF3B
  0
DICTIONARY
  5
BF2C
330
F8
100
AcDbDictionary
280
     1
281
     1
  3
ACAD_XREC_ROUNDTRIP
360
BF2D
  0
DICTIONARY
  5
BF30
330
FA
100
AcDbDictionary
280
     1
281
     1
  3
ACAD_XREC_ROUNDTRIP
360
BF31
  0
DICTIONARY
  5
BF42
330
1E6
100
AcDbDictionary
280
     1
281
     1
  3
ACAD_XREC_ROUNDTRIP
360
BF43
  0
DICTIONARY
  5
BF38
330
FE
100
AcDbDictionary
280
     1
281
     1
  3
ACAD_XREC_ROUNDTRIP
360
BF39
  0
DICTIONARY
  5
BF1C
330
F0
100
AcDbDictionary
280
     1
281
     1
  3
ACAD_XREC_ROUNDTRIP
360
BF1D
  0
DICTIONARY
  5
BF1E
330
F1
100
AcDbDictionary
280
     1
281
     1
  3
ACAD_XREC_ROUNDTRIP
360
BF1F
  0
DICTIONARY
  5
BF20
330
F2
100
AcDbDictionary
280
     1
281
     1
  3
ACAD_XREC_ROUNDTRIP
360
BF21
  0
DICTIONARY
  5
BF22
330
F3
100
AcDbDictionary
280
     1
281
     1
  3
ACAD_XREC_ROUNDTRIP
360
BF23
  0
DICTIONARY
  5
BF2A
330
F7
100
AcDbDictionary
280
     1
281
     1
  3
ACAD_XREC_ROUNDTRIP
360
BF2B
  0
DICTIONARY
  5
BF3E
330
1E4
100
AcDbDictionary
280
     1
281
     1
  3
ACAD_XREC_ROUNDTRIP
360
BF3F
  0
DICTIONARY
  5
BF36
330
FD
100
AcDbDictionary
280
     1
281
     1
  3
ACAD_XREC_ROUNDTRIP
360
BF37
  0
DICTIONARY
  5
BF40
330
1E5
100
AcDbDictionary
280
     1
281
     1
  3
ACAD_XREC_ROUNDTRIP
360
BF41
  0
DICTIONARY
  5
BF2E
330
F9
100
AcDbDictionary
280
     1
281
     1
  3
ACAD_XREC_ROUNDTRIP
360
BF2F
  0
DICTIONARY
  5
BF4C
330
1F3
100
AcDbDictionary
280
     1
281
     1
  3
ACAD_XREC_ROUNDTRIP
360
BF4D
  0
DICTIONARY
  5
BF4A
330
1F2
100
AcDbDictionary
280
     1
281
     1
  3
ACAD_XREC_ROUNDTRIP
360
BF4B
  0
DICTIONARY
  5
BF44
330
1EF
100
AcDbDictionary
280
     1
281
     1
  3
ACAD_XREC_ROUNDTRIP
360
BF45
  0
DICTIONARY
  5
BF46
330
1F0
100
AcDbDictionary
280
     1
281
     1
  3
ACAD_XREC_ROUNDTRIP
360
BF47
  0
DICTIONARY
  5
BF34
330
FC
100
AcDbDictionary
280
     1
281
     1
  3
ACAD_XREC_ROUNDTRIP
360
BF35
  0
DICTIONARY
  5
BF28
330
F6
100
AcDbDictionary
280
     1
281
     1
  3
ACAD_XREC_ROUNDTRIP
360
BF29
  0
DICTIONARY
  5
BF48
330
1F1
100
AcDbDictionary
280
     1
281
     1
  3
ACAD_XREC_ROUNDTRIP
360
BF49
  0
XRECORD
  5
BF51
102
{ACAD_REACTORS
330
BF50
102
}
330
BF50
100
AcDbXrecord
280
     1
102
DISPLAYNAME
  1
Metric50
102
FLAGS
 90
        0
  0
XRECORD
  5
BF16
102
{ACAD_REACTORS
330
BF15
102
}
330
BF15
100
AcDbXrecord
280
     1
102
SHADEPLOT
 70
     0
102
SHADEPLOTRESLEVEL
 70
     2
102
SHADEPLOTCUSTOMDPI
 70
   300
  0
XRECORD
  5
BF18
102
{ACAD_REACTORS
330
BF17
102
}
330
BF17
100
AcDbXrecord
280
     1
102
SHADEPLOT
 70
     0
102
SHADEPLOTRESLEVEL
 70
     2
102
SHADEPLOTCUSTOMDPI
 70
   300
  0
XRECORD
  5
BF13
102
{ACAD_REACTORS
330
BF12
102
}
330
BF12
100
AcDbXrecord
280
     1
102
SHADEPLOT
 70
     0
102
SHADEPLOTRESLEVEL
 70
     2
102
SHADEPLOTCUSTOMDPI
 70
   300
  0
XRECORD
  5
BF1A
102
{ACAD_REACTORS
330
1F9
102
}
330
1F9
100
AcDbXrecord
280
     1
102
MATERIAL
148
0.0
149
0.0
149
0.0
 93
        0
 94
       63
282
     0
 72
     1
 77
     1
171
     1
175
     1
179
     1
273
     0
  0
XRECORD
  5
1FA
102
{ACAD_REACTORS
330
1F9
102
}
330
1F9
100
AcDbXrecord
280
     1
 70
     1
 90
429727718
  1
D62C5603-E3A1-4AEA-B7FB-FE5D8D0755AF
310
504B03040A0000080000CC70623B3DEE336E79000000790000001B0000006175746F6465736B2D64657369676E2D7061636B6167652E786D6C3C3F786D6C2076657273696F6E3D22312E302220656E636F64696E673D227574662D3822203F3E3C666F726D6174733E3C666F726D61743E687474703A2F2F736368656D612E
310
6175746F6465736B2E636F6D2F64657369676E2D7061636B6167652F323030393C2F666F726D61743E3C2F666F726D6174733E504B0304140006080800CC70623BD486FD9CA0000000F4000000130000005B436F6E74656E745F54797065735D2E786D6C7D8EC10E82300C865F65E91D8A1E8C310C0EEA1BF002731658846E
310
D98AC1B77784ABF1D8FE5FBFBF75BBCE937A534CCEB38643598122B6FEE978D0B0485F9C41B54DDD7D022595594E1A469170414C76A4D9A4D207E29CF43ECE46F218070CC6BECC4078ACAA135ACF422C856C0E68EA1BF5669944DDD7BCDE7B1F8E415D77AECB980613C2E4AC91FC167A2B244592486606FC29C8FD7F045B9A
310
EF7053A7E60B504B0304140006080800CC70623B853B8169EB0000007C01000008000000636F72652E786D6C8D90416EC3201045AF62CDB6C206821CC7C244919D9CA01740401C94182C03558F5F9C3852BBEB6A467FFE9B197D7EFC9E1EC5975982F5AE035262288C535E5B377690E21535501C055FBC8FBF6C503839990E
310
5619041F179FE64D52DE45E362569DD7661365082642A11EB9E920A89B99642953CC8E702F67A9EE7234257977194EC9EAE275C4EABCCF5EAD5940D4AC6F0E35A568B8F43562CD7046CD199FD07E60174276A7BE677B5EADB0E0D14EEFFB6A31321A0D82627C4084204C3F096B71DD52F6819B16635EADF63F509AF53FA164
310
5DDCD1EDDD17164090FCC8732078B56691CB33A85CD7DCC40F504B0304140006080800CC70623B55019EA25F0000007C00000007000000636E782E786D6C4DCB3B0E80201045D1AD90E915ED2CF8AC45050C11660C8261F98AB1B07AC9C97D42D718D865D3E909258CFD00CCE24AC6E326A164D74DC0B4128928FF32603847
310
2BA13128B1252AC747C6BAB984FC68F0B87FE8960A5C09FE86CFB69FBA01504B0304140006080800CC70623BDBABAAF470010000D40300000C0000006662782F636F72652E786D6CC553D16E823014FD95A6AF4B694182CC941A83FA05FB810A9511A125A5257EFE2E82712ECEB8A7F100CD39F7F69E734AF9FADC366850B6
310
AF8DCE7018308C942E4C59EB2AC3DE1D498AD15A706B8CFB56869196ADCAF00863C12B6B7C374385D14E6907A836A59A41D9F7CA615434B0C8705F7CAA5606D23BA8E84F41278B93AC54100640439DE0BDB320004D43C63716C7C399D30917DCFBBA9CD9BA8469F5B156168B24CED3F7248AC8769F27244EB73B92EED8862C
310
B7F13E0C179B3C8F979C8ECD82BBBABDAA2BAC924E9558448CBD9330242CFA08E3154B5651FCC6D215639C8EE5774DBE2B5F6CF2B5768B68963BB5F5588420E442FC700B1139D4CB01F450C1E918227C2E09DF070D8140C84E1E9AAB8F1340832A9CB13130A5F1376A908D57309505ECF2A0DF179C4E9D30F5B239B87E3823
310
7A79C6F31DE1A8A5AEC08474B03C7837EAE4938639B44E5932B833D2C6B6B279CDC613877FA26EE21F4A2A4C63EC7F29A2F301D1F9F7A0E37D145F504B0304140006080800CC70623B9C113CC27E0000009D0000000B0000006662782F636E782E786D6C4DCCDF0A83201C86E15B91DFB94BFB330DD428C8FB886521330DA7
310
6397BF1A1DECE883878F57749FCDA1B7892F1BBC047A23808C7F84D9FA55424E0BE6803A256208E9EF06C84F9B91703228B1C690F78B66B34CD9A5439DF5CF0BFBF65E35BCA1B8D6A5C6F540381E886698B5741C695F9503EBA150A2F8958E3DC3EA0B504B0304140006080800CC70623B7DF2F77C2A010000120200003100
310
00006662782F41393633353835312D344632462D344230382D423046372D3739314545314133324237412F636F72652E786D6C8D51DB8EC22014FC15C2939B0D2DB4B45643319AE817EC0F6041255A68B86CFCFC856D4D76DF7CE190393373060EDB3DC707F856CE6B6B7A480A0C81328395DA5C7B18C3057510EC3873D686
310
3F34088C18550F330C39BB3A1BA7051AAC09CA84841A2BD5020AEF55806078A44B0FFD7053A328440C89E1EFC52486BBB8AA8214A99D789CF9E05200300FC927E4FB4D5B375D43103D5527440FB843077C5AA3F5861C8F645F5787F59E95B390B318B55CE45AA638FAA2957BD7248B390B7A7CC51F9C124149C82B8C378810
310
84AB2F42B7B8DD56F413775B8C5999E9FF4471926F8AA236A1AE96B8B3CC434E5839373893369E1FAF30EA395917409EB7F26AF8801C171837A4A6AC9C89E9F9C9B1A58BA30FD6A5EF5DDDCF894B9AD9B6A59C957943A9FCAE2FD5BC4DFE03504B0304140006080800CC70623BAD7543B64E01000033030000300000006662
310
782F41393633353835312D344632462D344230382D423046372D3739314545314133324237412F636E782E786D6CD593CD6EC32010845F0571AD6CE3D48AD20813A9873E410FBD12D82434182C7EAAE6EDBB2424CD25871E7B41D6EC30B3FA84F9E67BB2E40B4234DE8DB46F1925E094D7C6ED479AD3AE5951B2113C789FEE
310
6C943839C1488B4C05DF079FE72A69D8C96C13AAD6B8631503449F83828872B949AC57D26200B826A308D316B4064D6E46FCDA41C05550DC9E483A00797BFD207EFB092A45DE9514C1BBD22178396BD39D891265658C238DEA00936C654E5E433CB65A26D9F6EDB5EBC14EBF49A45CB856E66048291F6939A9A81BB5C89177
310
38143CA680F4AA299D66A042CEB3354A2684DC9D8D178FE0D9B8B41CAAD720F880EE7EF93C0C18769E099ECC04D5A102C8049A8A05632F4DDF376CF1DE0F6BB65C2F8627B65A33C6BB62177CEBBDAD973006829F89F22E814B54F4BC2BE347F8AA8F681390B50FA73F804400B5F542E796F19FF974E7F78DB802FE05E20750
310
4B0304140006080800CC70623BE75B7789680500003C100000340000006662782F41393633353835312D344632462D344230382D423046372D3739314545314133324237412F6F626A656374732E786D6CAD575B8F9B3818FD2B887D06C22499CB8AA1CA655245D5B455A356FB305264C061D8018C6C3393D95FBFC7600890
310
A4CD5EF210B0B1BFEBF98E3F7B1FF6596ABC522E1296DF9BAE3D320D9A872C4AF2F8DE2CE5CEBA358D0FBEC719939D65A691938CDE9B6ADAF4BD98B3B2D05311DD91329583D9D5FC0F438434A7A611A644887B5384CF34233629258BA878B12322891DEFF6B66BD70BFB62634E8AE781D082709A4B588AF91C528CDA28B73F
310
1C998EEF39EABBEFA97FBD6A7C7E9553F9D3D79FE442923C3C523610337627CB87ABE99D359D4CC6D6E4FACAB5E6ABF9D2726FC6A3C5F56271377BB88362213924694B38DD99FE47C48627A1E7D49F5A8BB5E1A74C0A599ED3B0F21F1E56366B89112D681E218F0915D0D6F17AD41FBA2A369DCF6335D62ABBD39779D5DDD1
310
11D4D8DE3CBB96B2E04FB8202E41051754A1AA8E8F76B4C6DFE810B580B1547F4B84911149794252234D024EF8BBE963A95AE27B3D310A9D5C215C7960FAEE415ED75694C6AFB17BCACA5D99A60A9AA65F217B0BFC53292ACB92BF283FAD0D3621576592CB5BED907C2FA8E9DF794E35E97BEA31BED21FEB401ABB94C44839
310
DCACBF0E1C5DA8DA5B2F4DFFD32AD86F543D9E565E7056502E157C00AD2671CD534549AB752FCA9CDA00677A313F04E51B22FF19E57B300579E3C97EB29F682D92935CEC18CF901B7B54FD8C51F362B56FC72FE0B3C1EAE335EDCCBF5AEC39ADB17DC238973F804BA5E6F6BFE7AF1FB32E523BE9F3BD571418E3631DCA4D48
310
5250CF639223210A9446CA30052EDF057BD35F8329C1ECD84552BF0DC8D18BE7BCE23BFE6BD960AB4A7DE79923A103BEBD80F911CBAA2C60DB19B01CF164A5583B772EE6D3FFA56666CBCDA74DC97724A48F9A58967497E489C4D979006FD7A05E227A1EBDD0F737C623387A9C844D3709995625106D157315F8B8392CD4E0
310
A0B9A720C4BE9829CEF37EA1E13111214D53925356365ADA634861B52519DD27A00AEB808EAF0628E6F435519D446F45CF2C9CF5214F0A15B2F6D06B79DA3EE3CBF7F56780D2F4E7EF73A0F5E5B02A38D07DC852C6B7C1FBB6664213E0C39E3EBA7FF4E1AD23EA2829407C85E586727488B751B2DB9502BC7B228A3FD68B6E
310
A65A22397E690AA8D158D7E404EC8CDA235CC3B7D1898680131CEC2CDF2638C65196279577750F15884AEE19F94199155B92B13297978469D4F8D358DF0AEF7631E28DC8F0D9F437D5D39A83B2231A1D52D543813A824EF8D44BCFF2FA6A31BD1E8DAD87F1CCB526B3879935BF59CDADD5C37479BB1CDD4CA7B3556B516589
310
EF352754B706114D9C885EC9131DE6EFEB43D99AFE2391C2F958179413D7CFEF6B1B6DB1E7600F00DE6E5C67454A339A4BA2E0FBA85ED26F045D454F463DBFCE484C2F90F2E5E3666003662ED8F755951A7D1BECD5B30B550B2785C8E7320B7292A4838DDA71BBC863ED7613CAF659337A3354231D4FF4A182A54904C2898C
310
98B28C4AD0CE056CCF332A80986E571EE9DBC305BB5FEB7E509220A58D25CF042D712A806AC0AD0C657FDEF80D2D9CEAA2EE4D1C76F60BFE74219A06527D6F82DF6412526107381E55E353090704D085B52408A8913C4ED159D79BDA71BB4BC506F4831350EB6F975CD22D69BF7AC49B91A2C0A9DDA3D5CA36AD20FC478E37
310
E61844E2352865EBCB61A275A65283CAAA9DD27703B4102F5AF51EF5F573B75CBB5AD38BC845F7A49F82A0966A49C2E3EA5EA0ECD326CD965F1DB402C6FA8B51A4658C5C5E2EC9E214602E55810345408596591009A82E7E7FFACA19EEA299B14A0081A705CB3296EBC14CDF658DCD336EA6D1136881AAEB87B81AB9EE53D5
310
F5EB8BC8362082DA24122F98680A4E7930C01A0079749CEA14382A0783E5EBA5A10F8C098456A03D6A4AEB6BB881E2513747552A5DB22C7EDAF83BD5528081A365F7FF06504B0304140006080000CC70623B000000000000000000000000350000006662782F41393633353835312D344632462D344230382D423046372D37
310
39314545314133324237412F76657274696365732E62696E504B0304140006080800CC70623BF270F1330600000004000000360000006662782F41393633353835312D344632462D344230382D423046372D3739314545314133324237412F747269616E676C65732E62696E636660600000504B0304140006080000CC7062
310
3B000000000000000000000000370000006662782F41393633353835312D344632462D344230382D423046372D3739314545314133324237412F617474726962757465732E62696E504B0304140006080800CC70623B08DA0BD19000000041010000360000006662782F41393633353835312D344632462D344230382D4230
310
46372D3739314545314133324237412F6469726563746F72792E786D6C858F410AC3201045AF22B36F53E9A60B35CBEEBAE80D244E44489C6234F4F835464A48035D0DF398FF9F8AF63D0E6CC63039F212F8F9020C7D47C6792B21C5FE7403D62A1188E2E60C98D7234A5830286103A55745067B9D86B8A3CF9C7F90C11DE6
310
07FB144396D7B6A82D282E9A152AD114D5EF2CB866EEE831B8EEA07A7BB5A8D7D61A2BAAEB7FD5F70921FF497D00504B0304140006080800CC70623BEDD1DC58FD000000A00100003B0000006662782F41393633353835312D344632462D344230382D423046372D3739314545314133324237412F7265736F75726365732F
310
636F72652E786D6C8D504B6E833010BD0A9A6D65B00922041947112427E8052C33A156828DFCA97AFC9A40A576D7CDCCE87D344F8F9FBFE667F689CE6B6B3A6039850C8DB2A336530731DC4903D95970676DF82583CCC8193B5861107C72362E3BA4AC096842428D1D7107A5F7182053CF7474E0D507CE32973124857FE48B
310
540F3961CEF244279DE03EB81420DB9EAC1384436FA353E879B1B182C7A8C75DA3C7F453DF353A1075D537A7BA6464B8F535A99AE14A9A2BBD90E350DD183B5CFABE3AF262350B1EF4FC9351399401471025A527C218A1E53BAB5A5AB765F5469B96525EACF23FA6B88CFF34456DC2A1DCE36E360F82A5202F42F062ED2BAD
310
579969AFDD8A6F504B010214000A0000080000CC70623B3DEE336E79000000790000001B00000000000000000000000000000000006175746F6465736B2D64657369676E2D7061636B6167652E786D6C504B01021400140006080800CC70623BD486FD9CA0000000F40000001300000000000000000000000000B20000005B
310
436F6E74656E745F54797065735D2E786D6C504B01021400140006080800CC70623B853B8169EB0000007C010000080000000000000000000000000083010000636F72652E786D6C504B01021400140006080800CC70623B55019EA25F0000007C000000070000000000000000000000000094020000636E782E786D6C504B
310
01021400140006080800CC70623BDBABAAF470010000D40300000C00000000000000000000000000180300006662782F636F72652E786D6C504B01021400140006080800CC70623B9C113CC27E0000009D0000000B00000000000000000000000000B20400006662782F636E782E786D6C504B01021400140006080800CC70
310
623B7DF2F77C2A010000120200003100000000000000000000000000590500006662782F41393633353835312D344632462D344230382D423046372D3739314545314133324237412F636F72652E786D6C504B01021400140006080800CC70623BAD7543B64E010000330300003000000000000000000000000000D2060000
310
6662782F41393633353835312D344632462D344230382D423046372D3739314545314133324237412F636E782E786D6C504B01021400140006080800CC70623BE75B7789680500003C10000034000000000000000000000000006E0800006662782F41393633353835312D344632462D344230382D423046372D3739314545
310
314133324237412F6F626A656374732E786D6C504B01021400140006080000CC70623B0000000000000000000000003500000000000000000000000000280E00006662782F41393633353835312D344632462D344230382D423046372D3739314545314133324237412F76657274696365732E62696E504B01021400140006
310
080800CC70623BF270F133060000000400000036000000000000000000000000007B0E00006662782F41393633353835312D344632462D344230382D423046372D3739314545314133324237412F747269616E676C65732E62696E504B01021400140006080000CC70623B0000000000000000000000003700000000000000
310
000000000000D50E00006662782F41393633353835312D344632462D344230382D423046372D3739314545314133324237412F617474726962757465732E62696E504B01021400140006080800CC70623B08DA0BD1900000004101000036000000000000000000000000002A0F00006662782F41393633353835312D344632
310
462D344230382D423046372D3739314545314133324237412F6469726563746F72792E786D6C504B01021400140006080800CC70623BEDD1DC58FD000000A00100003B000000000000000000000000000E1000006662782F41393633353835312D344632462D344230382D423046372D3739314545314133324237412F7265
310
736F75726365732F636F72652E786D6C504B0506000000000E000E0080040000641100000000
  0
XRECORD
  5
BF19
102
{ACAD_REACTORS
330
1F7
102
}
330
1F7
100
AcDbXrecord
280
     1
102
MATERIAL
148
0.0
149
0.0
149
0.0
 93
        0
 94
       63
282
     0
 72
     1
 77
     1
171
     1
175
     1
179
     1
273
     0
  0
XRECORD
  5
1F8
102
{ACAD_REACTORS
330
1F7
102
}
330
1F7
100
AcDbXrecord
280
     1
 70
     1
 90
429727718
  1
30362254-06B7-45E0-A893-8CFA70E3D6BC
310
504B03040A0000080000CC70623B3DEE336E79000000790000001B0000006175746F6465736B2D64657369676E2D7061636B6167652E786D6C3C3F786D6C2076657273696F6E3D22312E302220656E636F64696E673D227574662D3822203F3E3C666F726D6174733E3C666F726D61743E687474703A2F2F736368656D612E
310
6175746F6465736B2E636F6D2F64657369676E2D7061636B6167652F323030393C2F666F726D61743E3C2F666F726D6174733E504B0304140006080800CC70623BD486FD9CA0000000F4000000130000005B436F6E74656E745F54797065735D2E786D6C7D8EC10E82300C865F65E91D8A1E8C310C0EEA1BF002731658846E
310
D98AC1B77784ABF1D8FE5FBFBF75BBCE937A534CCEB38643598122B6FEE978D0B0485F9C41B54DDD7D022595594E1A469170414C76A4D9A4D207E29CF43ECE46F218070CC6BECC4078ACAA135ACF422C856C0E68EA1BF5669944DDD7BCDE7B1F8E415D77AECB980613C2E4AC91FC167A2B244592486606FC29C8FD7F045B9A
310
EF7053A7E60B504B0304140006080800CC70623B1EC5D7A3EB0000007C01000008000000636F72652E786D6C8D90416EC3201045AF82665B6103C6756C6122AB4D4ED00B204C5C94182C03558F5F9C3852BBEB6A467FFE9B197D71FC9E6FE8CBACC17AD7032D0820E3B41FAD9B7A48F1820F808E52ACDEC75F36404ECDA687
310
4D0629A6D5A76597B477D1B89855E747B38B2A041301E95B6E7A08FAD3CCAA50296647B8168BD2573599823EBB0CA76447F43862C7BCCF5EAC59410E4DDD9C7973C2755553CCCFA4C603E3040F1565ED3B1FDE4E432BCA0D9622DAF9795FAF464533826484B498524CD807E51D79ED187F21878E10516EF63F505AC67F42C9
310
BA58B1FDDD071640D2FCC87D2045B96591CB3DA85CB7DCE40F504B0304140006080800CC70623B55019EA25F0000007C00000007000000636E782E786D6C4DCB3B0E80201045D1AD90E915ED2CF8AC45050C11660C8261F98AB1B07AC9C97D42D718D865D3E909258CFD00CCE24AC6E326A164D74DC0B4128928FF32603847
310
2BA13128B1252AC747C6BAB984FC68F0B87FE8960A5C09FE86CFB69FBA01504B0304140006080800CC70623B8C9102E971010000D40300000C0000006662782F636F72652E786D6CC5535B6E833010BC8AE5DF0A6C08340F1947A84D4ED00B38C6A128602363A31CBFCB234A53A551FA553EC09AD9F5CE8C31DB9E9B1AF5CA
310
7695D1198E428A91D2D214952E33ECDD315861B4E5CC1AE3BE9561A445A3323CC098B3D21ADFCE9034DA29ED00D5A6503328BA4E398C640D8B0C77F253352214DE4145770A5B214FA2546114020D759C75CE8200340D19DE981F0F6746269C33EFAB6266AB02A655C74A59CCF365BADC27CB5D902ED22848F6340DF238A141
310
BE88E2F57B92BFEDF23523433367AE6A2EEAA455C2A902F398D2751045018D3FA264435F3771F242571B4A1919CA6F9A7C5B3CD9E42BED16F12C776AEB308F40C848FC700B1139D4891EF410CEC810227CC6846F8386402064270EF5C5C709A05E49676C024C61FC95EA45ED154CA5211D1FF4FB8291A913A68E9B83EBBB33
310
E2A7673CDE118E5AE8124C0807CB8377834E366998436B950D7A7746DAD846D4CFD978E0F04FD455FC5D49D2D4C6FE9722321F10997F0F32DC47FE05504B0304140006080800CC70623BFFEA85907E0000009D0000000B0000006662782F636E782E786D6C4DCCD10A83201886E15B91FFDC95D95A811AB6F23E625948A6C3
310
E9D8E5AF46073BFAE0E1E365ED67B3E8ADC3CB78C7815C7240DA3DFC64DCC221C519D7805AC182F7F1EF06C88D9BE6703008B6049F9E274D7A1E938DBB5AE3D6131B2589BA0D3D965551E0B2EA732C9B9A624AAEB41E3A557677029960D9AFB4EF11165F504B0304140006080800CC70623B4FEEA4082C0100001202000031
310
0000006662782F39464131463745442D413632322D343644302D413938332D3331353338454246344243312F636F72652E786D6C8D515B6EC32010BC0AE2AB55850DD871ED0813254D72825EC00192A2C460F1A872FC42ED48ED5F7E00CDCECCCEB26C731F6FE05B39AFADE921293004CA082BB5B9F43086336A21D870E6AC
310
0D7F68109861543DCC30E4ECE26C9C164858139409093556AA051CBC570102714B8F1E7AF1A5C6A11862480C7F2DA6415C878B2A4891CA89C7990F2E050073937C42DE1DB7E4F87ED8A36D4329AA9B3D46DBAEAD504556557BD81DEBDD0761E52CE42C462D17B996298E3E6BE59E35C962CE821E1FF18553435012728A7187
310
0841987E927A8D9B35ADDF70BBC6989599FE4F1427F9A4286A132ABAC49D651EF234CD5CE04CDA78BA3DC2A8FB645D00B9DF8B57E215725C60BCA2A463E54C4CE327C7A65E1C7DB02E7DEFCBF594B864C5CA6CDBD49C957943E9FA5D5FBAF336F90F504B0304140006080800CC70623BAD7543B64E01000033030000300000
310
006662782F39464131463745442D413632322D343644302D413938332D3331353338454246344243312F636E782E786D6CD593CD6EC32010845F0571AD6CE3D48AD20813A9873E410FBD12D82434182C7EAAE6EDBB2424CD25871E7B41D6EC30B3FA84F9E67BB2E40B4234DE8DB46F1925E094D7C6ED479AD3AE5951B2113C
310
789FEE6C943839C1488B4C05DF079FE72A69D8C96C13AAD6B8631503449F83828872B949AC57D26200B826A308D316B4064D6E46FCDA41C05550DC9E483A00797BFD207EFB092A45DE9514C1BBD22178396BD39D891265658C238DEA00936C654E5E433CB65A26D9F6EDB5EBC14EBF49A45CB856E66048291F6939A9A81BB5
310
C8917738143CA680F4AA299D66A042CEB3354A2684DC9D8D178FE0D9B8B41CAAD720F880EE7EF93C0C18769E099ECC04D5A102C8049A8A05632F4DDF376CF1DE0F6BB65C2F8627B65A33C6BB62177CEBBDAD973006829F89F22E814B54F4BC2BE347F8AA8F681390B50FA73F804400B5F542E796F19FF974E7F78DB802FE05
310
E207504B0304140006080800CC70623B16AB87BA640500003C100000340000006662782F39464131463745442D413632322D343644302D413938332D3331353338454246344243312F6F626A656374732E786D6CAD575B6FA33818FD2B887DE6924B3BED8A326A92B68A663B534DD4D13E548A0C38942D60649B369D5FBFC7
310
600890A493BDE42160637FD7F31D7FF63E6FB3D478A55C242CBF3247B66B1A340F5994E4F19559CA8D75611A9F7D8F33263BCB4C232719BD32D5B4E97B316765A1A722BA21652A07B3B7B33F0D11D29C9A46981221AE4C113ED38CD8A4942CA2E2C58E882476BCD9DA23BB5ED8171B73523C0F841684D35CC252CCE79062D4
310
468DFA43D7747CCF51DF7D4FFDEB5593E3AB9CCA9FBEFE241792E4E19EB28198C968BAB8199F5D5A67D3E9C49A9E8F47D6EC76B6B0469F26EEFC7C3EBFBCBEB98462213924694B38DD98FE1D62C393D073EA4FADC5DAF04326852CCF6958F90F0F2B9BB5C48816348F90C7840A68EB78EDF68723159BCEE7891A6B95DDE9D3
310
BCEAEEE8086A6C6F9E5D4B59F0175C10A7A0820BAA5055C7473B5AE3CFDD452D602CD5DF12616444529E90D448938013FE6EFA58AA96F85E4F8C42275708571E98FE6827AF6B2B4AE3D7D83D64E5A64C53054DD3AF90BD06FEA9149565C94FCA0F6B834DC85599E4F2423B24DF0B6AFA979E534DFA9E7A4CC6FA631D486393
310
921829879BF5D781A373557BCB85E97FB90DB62B558F8795179C15944B051F40AB495CF35451D26A4727654E6D8033BD98EF82F21D91FF8AF2DD9982BCF1643BDD4EB516C9492E368C67C88DED563FC36D5EACF66DFF057C3658BDBFA69DF9578B3DA735B64F18C7F20770A9D45CFCF7FCF563D6456A277DBEF78A02637CA2
310
43B90A490AEAB94F72244481D24819A6C0E59B606BFA4B3025981DBB48EAB701D97BF19C577CC77F2D1B6C55A9EF3C732474C0B727303F625995056C3B02963D9EAC146BE78EC5FCEC7FA999EBC5EACBAAE41B12D27B4D2C0BBA49F244E2ECDC81B76B502F113D8F5EE8FB1BE3111CDD4FC2AA9B844CAB1288B68AB90A7CDC
310
1C166AB0D3DC5310625FCC14E779BFD0709F8890A629C9292B1B2DED31A4B0DA928CEE135085754027E3018A397D4D5427D15BD1330B677DC8934285AC3DF45A9EB68FF8F2B8FC0A509AFEECFD0FF2DE25CC6047F7214B195F07EFEB9A094D800F7BFAE8FED187B78EA8A3A400F115961BCAD1215E47C966530AF0EE8128FE
310
58CEBB996A8964FFA529A046635D9353B0336A8F700DDF46271A024E70B0B37C9DE01847591E54DED53D54202AB947E4076556AC49C6CA5C9E1226B7F1A7B1BE15DEED62C41B91E1B3E9AFAAA735036547343A925075041DF0A9979E893B391F8FCFA6967B3EFB644DCF6E5CEBFAE272625DCC6FAF3FB93793C5F90CE1EF57
310
407342756B10D1C489E8953CD1617E5CEECAD6F4EF8914CE5D5D504E5C3F1F9736DA62CFC11E00BCDDB8CC8A9466349744C1F75EBDA4DF09BA8A9E8C7A7E9991989E20E5DBDD6A6003664ED8F7A04A8DBE0DF6EAD9B9AA858342E47399053949D2C146EDB85DE4B176BB0965FBAC19BD19AA918E27FA50C1D22402E144464C
310
59462568E704B6E71915404CB72B8FF4EDE184DDAF753F284990D2C6926782963815403548A70C657FDEF80D2D9CEAA2AE4C1C76F60BFE74219A06527D6582DF6412526107381E55E353090704D085B52408D0933C4ED159D79BDA71BB4BC506F4831350EB6F979CD22D69BF7AC49B91A2C0A9DDA3D5CA36AD20FC478E37E6
310
1844E2352865EBCB6EA275A652E3836BE04EFB400BF1A2556F515F1FBB35B2AB35BD889C744FFA1004B5544B121E57F70215746DD2F5E2C1412B602CBF19455AC6C8E5E9922C4E01E65215385004546899059180EAFCF7A707CE7017CD8CDB0410789AB32C63B91E5CEBBBACB17AC6CD347A022D5075FD106377347AAABA7E
310
7D11590744509B44E205134DC1290F06580320F78E537D3D73540E06CB970B431F185308AD40BBD794D6D77003C5A36E8EAA54BA64597CD8F83BD552A080A365F7FF06504B0304140006080000CC70623B000000000000000000000000350000006662782F39464131463745442D413632322D343644302D413938332D3331
310
353338454246344243312F76657274696365732E62696E504B0304140006080800CC70623BF270F1330600000004000000360000006662782F39464131463745442D413632322D343644302D413938332D3331353338454246344243312F747269616E676C65732E62696E636660600000504B0304140006080000CC70623B
310
000000000000000000000000370000006662782F39464131463745442D413632322D343644302D413938332D3331353338454246344243312F617474726962757465732E62696E504B0304140006080800CC70623B08DA0BD19000000041010000360000006662782F39464131463745442D413632322D343644302D413938
310
332D3331353338454246344243312F6469726563746F72792E786D6C858F410AC3201045AF22B36F53E9A60B35CBEEBAE80D244E44489C6234F4F835464A48035D0DF398FF9F8AF63D0E6CC63039F212F8F9020C7D47C6792B21C5FE7403D62A1188E2E60C98D7234A5830286103A55745067B9D86B8A3CF9C7F90C11DE607
310
FB144396D7B6A82D282E9A152AD114D5EF2CB866EEE831B8EEA07A7BB5A8D7D61A2BAAEB7FD5F70921FF497D00504B0304140006080800CC70623B0D6EF93BFE000000A00100003B0000006662782F39464131463745442D413632322D343644302D413938332D3331353338454246344243312F7265736F75726365732F63
310
6F72652E786D6C8D50596E833010BD0A9ADFCA60B334011947A8694ED00B586642AC041B79A97AFC9A40A5F6AF3F33A3B7689E1E3F7DCD8FEC139DD7D6F4C0720A191A65476DA61E62B892236427C19DB5E1970C322367EC618541F0C9D9B8EC90B226A009093576C41D94DE63804C3DD2D18357379C652E63480A7FCF17A9
310
EE72C29CE5894E3AC17D702940B63D59270887DE46A7D0F36263058F518FBB468FE9A7BE6A7420864373B8D4873369AA8691FA421B3294352543C5CAF65C0F6FEF43CB8BD52C78D0F34F46E550061C419494B6843142CB0F5677F4B52BEB177AEC28E5C52AFF638ACBF84F53D42654E51E77B379102C05791282176B5F693D
310
CB4C7BED567C03504B010214000A0000080000CC70623B3DEE336E79000000790000001B00000000000000000000000000000000006175746F6465736B2D64657369676E2D7061636B6167652E786D6C504B01021400140006080800CC70623BD486FD9CA0000000F40000001300000000000000000000000000B20000005B
310
436F6E74656E745F54797065735D2E786D6C504B01021400140006080800CC70623B1EC5D7A3EB0000007C010000080000000000000000000000000083010000636F72652E786D6C504B01021400140006080800CC70623B55019EA25F0000007C000000070000000000000000000000000094020000636E782E786D6C504B
310
01021400140006080800CC70623B8C9102E971010000D40300000C00000000000000000000000000180300006662782F636F72652E786D6C504B01021400140006080800CC70623BFFEA85907E0000009D0000000B00000000000000000000000000B30400006662782F636E782E786D6C504B01021400140006080800CC70
310
623B4FEEA4082C0100001202000031000000000000000000000000005A0500006662782F39464131463745442D413632322D343644302D413938332D3331353338454246344243312F636F72652E786D6C504B01021400140006080800CC70623BAD7543B64E010000330300003000000000000000000000000000D5060000
310
6662782F39464131463745442D413632322D343644302D413938332D3331353338454246344243312F636E782E786D6C504B01021400140006080800CC70623B16AB87BA640500003C1000003400000000000000000000000000710800006662782F39464131463745442D413632322D343644302D413938332D3331353338
310
454246344243312F6F626A656374732E786D6C504B01021400140006080000CC70623B0000000000000000000000003500000000000000000000000000270E00006662782F39464131463745442D413632322D343644302D413938332D3331353338454246344243312F76657274696365732E62696E504B01021400140006
310
080800CC70623BF270F133060000000400000036000000000000000000000000007A0E00006662782F39464131463745442D413632322D343644302D413938332D3331353338454246344243312F747269616E676C65732E62696E504B01021400140006080000CC70623B0000000000000000000000003700000000000000
310
000000000000D40E00006662782F39464131463745442D413632322D343644302D413938332D3331353338454246344243312F617474726962757465732E62696E504B01021400140006080800CC70623B08DA0BD190000000410100003600000000000000000000000000290F00006662782F39464131463745442D413632
310
322D343644302D413938332D3331353338454246344243312F6469726563746F72792E786D6C504B01021400140006080800CC70623B0D6EF93BFE000000A00100003B000000000000000000000000000D1000006662782F39464131463745442D413632322D343644302D413938332D3331353338454246344243312F7265
310
736F75726365732F636F72652E786D6C504B0506000000000E000E0080040000641100000000
  0
XRECORD
  5
BF1B
102
{ACAD_REACTORS
330
173
102
}
330
173
100
AcDbXrecord
280
     1
102
MATERIAL
148
0.0
149
0.0
149
0.0
 93
        0
 94
       63
282
     0
 72
     1
 77
     1
171
     1
175
     1
179
     1
273
     0
  0
XRECORD
  5
175
102
{ACAD_REACTORS
330
173
102
}
330
173
100
AcDbXrecord
280
     1
270
     1
271
     1
  0
XRECORD
  5
174
102
{ACAD_REACTORS
330
173
102
}
330
173
100
AcDbXrecord
280
     1
270
     1
271
     1
  0
XRECORD
  5
1FB
102
{ACAD_REACTORS
330
173
102
}
330
173
100
AcDbXrecord
280
     1
 70
     0
 90
1673772943
  1
ECE7A1D2-D628-4531-984C-D00F80459256
310
504B03040A0000080000CC70623B3DEE336E79000000790000001B0000006175746F6465736B2D64657369676E2D7061636B6167652E786D6C3C3F786D6C2076657273696F6E3D22312E302220656E636F64696E673D227574662D3822203F3E3C666F726D6174733E3C666F726D61743E687474703A2F2F736368656D612E
310
6175746F6465736B2E636F6D2F64657369676E2D7061636B6167652F323030393C2F666F726D61743E3C2F666F726D6174733E504B0304140006080800CC70623BD486FD9CA0000000F4000000130000005B436F6E74656E745F54797065735D2E786D6C7D8EC10E82300C865F65E91D8A1E8C310C0EEA1BF002731658846E
310
D98AC1B77784ABF1D8FE5FBFBF75BBCE937A534CCEB38643598122B6FEE978D0B0485F9C41B54DDD7D022595594E1A469170414C76A4D9A4D207E29CF43ECE46F218070CC6BECC4078ACAA135ACF422C856C0E68EA1BF5669944DDD7BCDE7B1F8E415D77AECB980613C2E4AC91FC167A2B244592486606FC29C8FD7F045B9A
310
EF7053A7E60B504B0304140006080800CC70623BD9DDAED0EC0000007C01000008000000636F72652E786D6C8D90416EC3201045AF82665B61836D9CD8C2444DD39CA01740405C94182C03558F5F9C3852BBEB6A467FFE9B197D7EF89E6EE8CB2CC17A37002D0820E394D7D68D03A478C17B4007C117EFE32F1B20272733C0
310
2A83E0E3E2D3BC49CABB685CCCAAF3DA6CA20CC14440EA969B0182FA34932C648AD911AEC52CD5558EA6A0CF2EC329598D1E47ACCEFBECC59A050463A7EA5833865FEBDD0E37353BE3EE8DBDE3F6786A48D375FBF6CC78B9C282473B3DEFABC5C86834888A900E538A49F5419B9EB47DD5BC907D4F082F57FB1F28CDFA9F50
310
B22ED6D5F6EE030B20687EE43E10BC5CB3C8E51E54AE6B6EE207504B0304140006080800CC70623B55019EA25F0000007C00000007000000636E782E786D6C4DCB3B0E80201045D1AD90E915ED2CF8AC45050C11660C8261F98AB1B07AC9C97D42D718D865D3E909258CFD00CCE24AC6E326A164D74DC0B4128928FF326038
310
472BA13128B1252AC747C6BAB984FC68F0B87FE8960A5C09FE86CFB69FBA01504B0304140006080800CC70623BA24EB22D72010000D40300000C0000006662782F636F72652E786D6CC5535B6E833010BC8AE5DF0A6C5E49888CA3A6694ED00B38E05014B091B1518EDFE511A5A9D228FD2A1F60CDEC7A67C6986DCE4D8D7A
310
69BA4AAB0C073EC548AA5C17952A33ECECD15B61B4E1CC686DBF9561A44423333CC098B3D268D7CE50AE9595CA02AA74216750749DB418E5352C32DCE59FB211BE70162ABA93DF8AFC244AE9073ED050C759670D0840D390E18DF9F1706664C23973AE2A66B62A605A75ACA4C13C4976E1364A12EF355A2EBD384AF65EFA96
310
BC7B8BED2EA6719AAE16FB8491A199335B351775B991C2CA02F390D2D40B028F861F41BCA68B7518BFD0D59A524686F29B26D7164F36B94AD9289CE54E6D1DE6010819891F6E21228B3AD1831EC219194284CF98F06DD01008846CC5A1BEF83801D4CBDC6A1303536877A57A513B0953A94FC707FDBE6064EA84A9E3E6E0FA
310
EE8CF0E9198F7784A316AA0413C2C2F2E0ECA0934D1AE6D05A69BCDE9E91D2A611F573361E38FC1375157F5752AE6B6DFE4B11990F88CCBF0719EE23FF02504B0304140006080800CC70623B408A7D3B7C0000009D0000000B0000006662782F636E782E786D6C4DCCD10A83201886E15B91FFDC552A92A0064DBC8F581632
310
D3703A76F9ABD1C18E3E78F878E5F0D9027ABBFCF2292AE86E2D20171F69F6715550CB827B40839639A5F2770314A7CD293819B45C73AAFB45B35BA61ACAA1C1C7E7855C58C15BC331339661262CC762340413D68D77DA5B42298546CBE6573AF60CEB2F504B0304140006080800CC70623B449FB9BD290100001202000031
310
0000006662782F36394639363044362D344446342D343946362D394244322D3234314243333846323333332F636F72652E786D6C8D515B6EC32010BC0AE22B55850D98B871848994463E412FE002495162B07854397EA176A4F62F3F2C9A9D991D587EB84F37F0AD7D30CEF6905418026DA553C65E7A98E219ED203808EE9D
310
8B7F6810D871D23D2C3014FCE25D9A57483A1BB58D19B54EE9151C43D0110279CB971E06F9A5A7B11A53CC8C70ADE6515EC78BAE4895DB992778883E0700CB907242D17643D7E2538BD869608875438BBAE38922CAC8F1BDD90DB4691A5E2F42C153326A951B95E398B3D1FE599322163C9AE9115F7A3D46ADA0A018778810
310
84E907617BDCEE297BC5BB3DC6BC2EF47FA234AB2745C9D8D8D035EE220B50105E2F0DC1954B9FB747187D9F9D8FA0CCDB042D5FA0C015C65B42DF78BD10F3F3B363CB56C7109DCFDFBBB97E662ED92EB62D13BC2E1BCAE5777DB9966D8A1F504B0304140006080800CC70623BAD7543B64E01000033030000300000006662
310
782F36394639363044362D344446342D343946362D394244322D3234314243333846323333332F636E782E786D6CD593CD6EC32010845F0571AD6CE3D48AD20813A9873E410FBD12D82434182C7EAAE6EDBB2424CD25871E7B41D6EC30B3FA84F9E67BB2E40B4234DE8DB46F1925E094D7C6ED479AD3AE5951B2113C789FEE
310
6C943839C1488B4C05DF079FE72A69D8C96C13AAD6B8631503449F83828872B949AC57D26200B826A308D316B4064D6E46FCDA41C05550DC9E483A00797BFD207EFB092A45DE9514C1BBD22178396BD39D891265658C238DEA00936C654E5E433CB65A26D9F6EDB5EBC14EBF49A45CB856E66048291F6939A9A81BB5C89177
310
38143CA680F4AA299D66A042CEB3354A2684DC9D8D178FE0D9B8B41CAAD720F880EE7EF93C0C18769E099ECC04D5A102C8049A8A05632F4DDF376CF1DE0F6BB65C2F8627B65A33C6BB62177CEBBDAD973006829F89F22E814B54F4BC2BE347F8AA8F681390B50FA73F804400B5F542E796F19FF974E7F78DB802FE05E20750
310
4B0304140006080800CC70623B8D05915C650500003B100000340000006662782F36394639363044362D344446342D343946362D394244322D3234314243333846323333332F6F626A656374732E786D6CAD575B6FA33814FE2B887D06429276DA1565D4266D158D3A339A6846FB502932E050B66023DB74D2FDF5FB190C01
310
9276B2973C046C8ECFF53B17071F77456EBD502133CEAE6CDF9DD81665314F32965ED995DA3A17B6F5310C04E7AA47665B8C14F4CAD6DB7618A48257A5D94AE89654B91AEDDEDDFC61C998326A5B714EA4BCB265FC440BE2924AF184CA6737218AB8E976E7FA6E4338649B0A523E8D98964450A6A029F619B8588D52FE7039
310
B1BD30F0F4F730D0FF866AF6369557DB33949F31A9088B0F848DD8CCFCF9F2767A76E99CCDE733677E3EF59D9BBB9BA5E37F984D16E78BC5E5F5ED25044B25C0C96822E8D60EEFE11B91C581D77CEA34368A1F5329E68CD1B8B61F16D63A1B8E092D294B10C78C4A48EB593D192E7DED9BDEE7995E1B91FDEDD3ACEA9FE831
310
6A756F9F7D4D79F4274C90A7A04248AA51D5F8C718DAE06FB2F75AC4796EBE65D22A88A22223B995679120E2D50E41AA49C260C046A35368846B0BECD0DFF3EBEB8AD4F835768F69B9ADF25C43D30E6B646F807FAA64AD59F61715C7A54127C4AACA98BA3006A9D792DAE165E0D59B61A01FB3A9F9D838D2DAE62445C86166
310
F37564E842E7DE6A69879FEEA2DD5AE7E371E1A5E025154AC307D06A03D73EB5978C58FFA4C8E9033066E0F3BD53BEC1F39F91BE7B55103791EDE6BBB991A2046172CB4581D8B893FA674DDA17A77B3B7C413D1B511FD2743BFF8A38F03A658705E3ADF8015C3A3417FF3D7E439FF591DA0B5F18BC20C1B8981957AE6392A3
310
F43C640C01D1A0B4728E2DD4F26DB4B3C3152A252A3B4E913CEC1C72F012782FF88EFF8637AA552DBEF76408E8A8DE9E50F9E1CB3A2DA0DB1B6039A893B56063DC5B3E3FFB5F72E67AB9FEB4AEC496C4F4C1149625DD662C53E89D7BF0F6151A046260D1337DFDC94502430F83B0EE07A130A224BCAD7DAE1D9FB6CD422FF6
310
920702629C4BB9AE79C12F243C6432A6794E18E5552BA56B431AAB5D91317302B2B071E86C3A42B1A02F999E24061403B5D0EB639195DA655DD3EBEAB4FB862DDF579F014AD0E73C22F99E28DA57FB98E75C6CA2D74D53086D600F4786E0FE3144B771A8A7B900F03594DB8A633CBC49B2EDB69228BB479CF863B5E807AAAB
310
23872F6DFEB4129B949CA33823F58830E86D65621E10047D9DB34D862E8EAC3C2ABC2F7B2C40D67CDFE01F5545B92105AF983AC54D93D69E56FB8E797F88913F898A9FEC705D3F9D1B54EC8426FB500D40A03BD0119B06E1B95DDC7EB8F6975367793EBD70E66733DFB9BC982F9CE564727731999F5D4ECFCE3B8D6A4DC2A0
310
6D50FD148437D110834A64C6CDDF57FBACB5C307A2A477DFE4939736CFEF2B175371E0E10CF0DD1D5C15654E0BCA14D1E87DD02FF93782A162C0A3D95F1524A52770F972BF1EE9809D13CE7DD599467F8ECE9ADD85CE85A34CD45355448C64F9E8A031DC2D596ACC6E5DD93D9B82DE2EF5CAF81363A8E47996A0DE24564A79
310
4115AACE09C55E14540231FDA13C319787134EBF34E3A022514E5B4D9E0826E25C02D5805B15ABE1BEF51B26383D445DD9E875EE33FE4C22DA16427D65A3BCA92CA6D28DD01DF5DC53330704308475351050232CCD31583787BA75774AFB06E5070DD0C8EF484E19968C5D83BA5B90B244D31E54D55A372320FE4786B7EA58
310
44E135AA5467CB7EA333A61683CC6A8C3257034C10CF46F40EF9F5BE59BE5BD30C3C72D235E95D10345C1D45445A5F0BB47E46A5EBE5570F9380B5FA629579952296A773720405982B9DE04011506178964401AA8BDF1FBF0A8EAB6861DD6580C0E38217056766716DAEB2D6FA0917D3E4116581EADB879C4E7CFFB11EFACD
310
3D641311495D92C8676CB409A72D18610D803CE8A626049E8EC1887CB5B44CC39883690DDA8399B4B9855B481E7D71D4A9D22F96E5BB73BF5793020C02137BF837504B0304140006080000CC70623B000000000000000000000000350000006662782F36394639363044362D344446342D343946362D394244322D32343142
310
43333846323333332F76657274696365732E62696E504B0304140006080800CC70623BF270F1330600000004000000360000006662782F36394639363044362D344446342D343946362D394244322D3234314243333846323333332F747269616E676C65732E62696E636660600000504B0304140006080000CC70623B0000
310
00000000000000000000370000006662782F36394639363044362D344446342D343946362D394244322D3234314243333846323333332F617474726962757465732E62696E504B0304140006080800CC70623B08DA0BD19000000041010000360000006662782F36394639363044362D344446342D343946362D394244322D
310
3234314243333846323333332F6469726563746F72792E786D6C858F410AC3201045AF22B36F53E9A60B35CBEEBAE80D244E44489C6234F4F835464A48035D0DF398FF9F8AF63D0E6CC63039F212F8F9020C7D47C6792B21C5FE7403D62A1188E2E60C98D7234A5830286103A55745067B9D86B8A3CF9C7F90C11DE607FB14
310
4396D7B6A82D282E9A152AD114D5EF2CB866EEE831B8EEA07A7BB5A8D7D61A2BAAEB7FD5F70921FF497D00504B0304140006080800CC70623BCA768048FE000000A00100003B0000006662782F36394639363044362D344446342D343946362D394244322D3234314243333846323333332F7265736F75726365732F636F72
310
652E786D6C8D50596E833010BD0A9ADFCA60D600328E9AA639412F609909B1126CE4A5EAF16B0295DABFFECC8CDEA2797AECF8353F924FB44E193D409E5248504B332A3D0D10FC95B4901C39B3C6F85F3248B49871801506CE266BC2B243D2688FDA47549B11775038871E12F988C7004EDE7016A9083E2ADC3D5D84BC8B09
310
D33C8D74D471E6BC8D0192EDC93A815B742658898E651BCB59086ADC356A8C3FD555A1055ED7E7E254D615792D0F075295F585746FF53B694EE78A565DD736979A65AB9933AFE69F8CD2A2F038022F28ED489E135A7CE4554F9BBEA85E68DB53CAB255FEC71496F19FA6A0B42F8B3DEE6673C0F318E4497096AD7DC5F52C33
310
EEB55BFE0D504B010214000A0000080000CC70623B3DEE336E79000000790000001B00000000000000000000000000000000006175746F6465736B2D64657369676E2D7061636B6167652E786D6C504B01021400140006080800CC70623BD486FD9CA0000000F40000001300000000000000000000000000B20000005B436F
310
6E74656E745F54797065735D2E786D6C504B01021400140006080800CC70623BD9DDAED0EC0000007C010000080000000000000000000000000083010000636F72652E786D6C504B01021400140006080800CC70623B55019EA25F0000007C000000070000000000000000000000000095020000636E782E786D6C504B0102
310
1400140006080800CC70623BA24EB22D72010000D40300000C00000000000000000000000000190300006662782F636F72652E786D6C504B01021400140006080800CC70623B408A7D3B7C0000009D0000000B00000000000000000000000000B50400006662782F636E782E786D6C504B01021400140006080800CC70623B
310
449FB9BD290100001202000031000000000000000000000000005A0500006662782F36394639363044362D344446342D343946362D394244322D3234314243333846323333332F636F72652E786D6C504B01021400140006080800CC70623BAD7543B64E010000330300003000000000000000000000000000D20600006662
310
782F36394639363044362D344446342D343946362D394244322D3234314243333846323333332F636E782E786D6C504B01021400140006080800CC70623B8D05915C650500003B10000034000000000000000000000000006E0800006662782F36394639363044362D344446342D343946362D394244322D32343142433338
310
46323333332F6F626A656374732E786D6C504B01021400140006080000CC70623B0000000000000000000000003500000000000000000000000000250E00006662782F36394639363044362D344446342D343946362D394244322D3234314243333846323333332F76657274696365732E62696E504B010214001400060808
310
00CC70623BF270F13306000000040000003600000000000000000000000000780E00006662782F36394639363044362D344446342D343946362D394244322D3234314243333846323333332F747269616E676C65732E62696E504B01021400140006080000CC70623B00000000000000000000000037000000000000000000
310
00000000D20E00006662782F36394639363044362D344446342D343946362D394244322D3234314243333846323333332F617474726962757465732E62696E504B01021400140006080800CC70623B08DA0BD190000000410100003600000000000000000000000000270F00006662782F36394639363044362D344446342D
310
343946362D394244322D3234314243333846323333332F6469726563746F72792E786D6C504B01021400140006080800CC70623BCA768048FE000000A00100003B000000000000000000000000000B1000006662782F36394639363044362D344446342D343946362D394244322D3234314243333846323333332F7265736F
310
75726365732F636F72652E786D6C504B0506000000000E000E0080040000621100000000
  0
XRECORD
  5
176
102
{ACAD_REACTORS
330
173
102
}
330
173
100
AcDbXrecord
280
     1
270
     1
271
     1
  0
XRECORD
  5
177
102
{ACAD_REACTORS
330
173
102
}
330
173
100
AcDbXrecord
280
     1
270
     1
271
     1
  0
XRECORD
  5
BF3D
102
{ACAD_REACTORS
330
BF3C
102
}
330
BF3C
100
AcDbXrecord
280
     1
102
ACAD_ROUNDTRIP_2012_MLEADER_STYLE
298
     1
  0
XRECORD
  5
BF4F
102
{ACAD_REACTORS
330
BF4E
102
}
330
BF4E
100
AcDbXrecord
280
     1
102
DISPLAYNAME
  1
Metric50
102
FLAGS
 90
        0
  0
CELLSTYLEMAP
  5
BF0F
102
{ACAD_REACTORS
330
162
102
}
330
162
100
AcDbCellStyleMap
 90
        3
300
CELLSTYLE
  1
TABLEFORMAT_BEGIN
 90
        5
170
     1
 91
        0
 92
    32768
 62
   257
 93
        1
300
CONTENTFORMAT
  1
CONTENTFORMAT_BEGIN
 90
        0
 91
        0
 92
      512
 93
        0
300

 40
0.0
140
1.0
 94
        5
 62
     0
340
11
144
6.0
309
CONTENTFORMAT_END
171
     1
301
MARGIN
  1
CELLMARGIN_BEGIN
 40
1.5
 40
1.5
 40
1.5
 40
1.5
 40
4.5
 40
4.5
309
CELLMARGIN_END
 94
        6
 95
        1
302
GRIDFORMAT
  1
GRIDFORMAT_BEGIN
 90
        0
 91
        1
 62
     0
 92
       -2
340
14
 93
        0
 40
1.125
309
GRIDFORMAT_END
 95
        2
302
GRIDFORMAT
  1
GRIDFORMAT_BEGIN
 90
        0
 91
        1
 62
     0
 92
       -2
340
14
 93
        0
 40
1.125
309
GRIDFORMAT_END
 95
        4
302
GRIDFORMAT
  1
GRIDFORMAT_BEGIN
 90
        0
 91
        1
 62
     0
 92
       -2
340
14
 93
        0
 40
1.125
309
GRIDFORMAT_END
 95
        8
302
GRIDFORMAT
  1
GRIDFORMAT_BEGIN
 90
        0
 91
        1
 62
     0
 92
       -2
340
14
 93
        0
 40
1.125
309
GRIDFORMAT_END
 95
       16
302
GRIDFORMAT
  1
GRIDFORMAT_BEGIN
 90
        0
 91
        1
 62
     0
 92
       -2
340
14
 93
        0
 40
1.125
309
GRIDFORMAT_END
 95
       32
302
GRIDFORMAT
  1
GRIDFORMAT_BEGIN
 90
        0
 91
        1
 62
     0
 92
       -2
340
14
 93
        0
 40
1.125
309
GRIDFORMAT_END
309
TABLEFORMAT_END
  1
CELLSTYLE_BEGIN
 90
        1
 91
        1
300
_TITLE
309
CELLSTYLE_END
300
CELLSTYLE
  1
TABLEFORMAT_BEGIN
 90
        5
170
     1
 91
        0
 92
        0
 62
   257
 93
        1
300
CONTENTFORMAT
  1
CONTENTFORMAT_BEGIN
 90
        0
 91
        0
 92
      512
 93
        0
300

 40
0.0
140
1.0
 94
        5
 62
     0
340
11
144
4.5
309
CONTENTFORMAT_END
171
     1
301
MARGIN
  1
CELLMARGIN_BEGIN
 40
1.5
 40
1.5
 40
1.5
 40
1.5
 40
4.5
 40
4.5
309
CELLMARGIN_END
 94
        6
 95
        1
302
GRIDFORMAT
  1
GRIDFORMAT_BEGIN
 90
        0
 91
        1
 62
     0
 92
       -2
340
14
 93
        0
 40
1.125
309
GRIDFORMAT_END
 95
        2
302
GRIDFORMAT
  1
GRIDFORMAT_BEGIN
 90
        0
 91
        1
 62
     0
 92
       -2
340
14
 93
        0
 40
1.125
309
GRIDFORMAT_END
 95
        4
302
GRIDFORMAT
  1
GRIDFORMAT_BEGIN
 90
        0
 91
        1
 62
     0
 92
       -2
340
14
 93
        0
 40
1.125
309
GRIDFORMAT_END
 95
        8
302
GRIDFORMAT
  1
GRIDFORMAT_BEGIN
 90
        0
 91
        1
 62
     0
 92
       -2
340
14
 93
        0
 40
1.125
309
GRIDFORMAT_END
 95
       16
302
GRIDFORMAT
  1
GRIDFORMAT_BEGIN
 90
        0
 91
        1
 62
     0
 92
       -2
340
14
 93
        0
 40
1.125
309
GRIDFORMAT_END
 95
       32
302
GRIDFORMAT
  1
GRIDFORMAT_BEGIN
 90
        0
 91
        1
 62
     0
 92
       -2
340
14
 93
        0
 40
1.125
309
GRIDFORMAT_END
309
TABLEFORMAT_END
  1
CELLSTYLE_BEGIN
 90
        2
 91
        1
300
_HEADER
309
CELLSTYLE_END
300
CELLSTYLE
  1
TABLEFORMAT_BEGIN
 90
        5
170
     1
 91
        0
 92
        0
 62
   257
 93
        1
300
CONTENTFORMAT
  1
CONTENTFORMAT_BEGIN
 90
        0
 91
        0
 92
      512
 93
        0
300

 40
0.0
140
1.0
 94
        2
 62
     0
340
11
144
4.5
309
CONTENTFORMAT_END
171
     1
301
MARGIN
  1
CELLMARGIN_BEGIN
 40
1.5
 40
1.5
 40
1.5
 40
1.5
 40
4.5
 40
4.5
309
CELLMARGIN_END
 94
        6
 95
        1
302
GRIDFORMAT
  1
GRIDFORMAT_BEGIN
 90
        0
 91
        1
 62
     0
 92
       -2
340
14
 93
        0
 40
1.125
309
GRIDFORMAT_END
 95
        2
302
GRIDFORMAT
  1
GRIDFORMAT_BEGIN
 90
        0
 91
        1
 62
     0
 92
       -2
340
14
 93
        0
 40
1.125
309
GRIDFORMAT_END
 95
        4
302
GRIDFORMAT
  1
GRIDFORMAT_BEGIN
 90
        0
 91
        1
 62
     0
 92
       -2
340
14
 93
        0
 40
1.125
309
GRIDFORMAT_END
 95
        8
302
GRIDFORMAT
  1
GRIDFORMAT_BEGIN
 90
        0
 91
        1
 62
     0
 92
       -2
340
14
 93
        0
 40
1.125
309
GRIDFORMAT_END
 95
       16
302
GRIDFORMAT
  1
GRIDFORMAT_BEGIN
 90
        0
 91
        1
 62
     0
 92
       -2
340
14
 93
        0
 40
1.125
309
GRIDFORMAT_END
 95
       32
302
GRIDFORMAT
  1
GRIDFORMAT_BEGIN
 90
        0
 91
        1
 62
     0
 92
       -2
340
14
 93
        0
 40
1.125
309
GRIDFORMAT_END
309
TABLEFORMAT_END
  1
CELLSTYLE_BEGIN
 90
        3
 91
        2
300
_DATA
309
CELLSTYLE_END
  0
XRECORD
  5
BF14
102
{ACAD_REACTORS
330
162
102
}
330
162
100
AcDbXrecord
280
     1
102
ACAD_ROUNDTRIP_PRE2007_TABLESTYLE
 90
      512
 91
        0
  1

 92
      512
 93
        0
  2

 94
      512
 95
        0
  3

  0
XRECORD
  5
BF27
102
{ACAD_REACTORS
330
BF26
102
}
330
BF26
100
AcDbXrecord
280
     1
102
RTVSPost2010Prop28
280
     1
102
RTVSPost2010PropOp28
 70
     1
102
RTVSPost2010Prop29
280
     1
102
RTVSPost2010PropOp29
 70
     1
102
RTVSPost2010Prop30
280
     0
102
RTVSPost2010PropOp30
 70
     1
102
RTVSPost2010Prop31
280
     0
102
RTVSPost2010PropOp31
 70
     1
102
RTVSPost2010Prop32
280
     0
102
RTVSPost2010PropOp32
 70
     1
102
RTVSPost2010Prop33
280
     0
102
RTVSPost2010PropOp33
 70
     1
102
RTVSPost2010Prop34
280
     0
102
RTVSPost2010PropOp34
 70
     1
102
RTVSPost2010Prop35
280
     0
102
RTVSPost2010PropOp35
 70
     1
102
RTVSPost2010Prop36
280
     0
102
RTVSPost2010PropOp36
 70
     1
102
RTVSPost2010Prop37
 90
       50
102
RTVSPost2010PropOp37
 70
     1
102
RTVSPost2010Prop38
140
0.0
102
RTVSPost2010PropOp38
 70
     1
102
RTVSPost2010Prop39
140
1.0
102
RTVSPost2010PropOp39
 70
     1
102
RTVSPost2010Prop40
 90
        0
102
RTVSPost2010PropOp40
 70
     1
102
RTVSPost2010Prop41ColorIndex
 90
       18
102
RTVSPost2010Prop41ColorRGB
 90
        0
102
RTVSPost2010PropOp41
 70
     1
102
RTVSPost2010Prop42
 90
       50
102
RTVSPost2010PropOp42
 70
     1
102
RTVSPost2010Prop43
 90
        3
102
RTVSPost2010PropOp43
 70
     1
102
RTVSPost2010Prop44ColorIndex
 90
        5
102
RTVSPost2010Prop44ColorRGB
 90
      255
102
RTVSPost2010PropOp44
 70
     1
102
RTVSPost2010Prop45
280
     0
102
RTVSPost2010PropOp45
 70
     1
102
RTVSPost2010Prop46
 90
       50
102
RTVSPost2010PropOp46
 70
     1
102
RTVSPost2010Prop47
 90
       50
102
RTVSPost2010PropOp47
 70
     1
102
RTVSPost2010Prop48
 90
       50
102
RTVSPost2010PropOp48
 70
     1
102
RTVSPost2010Prop49
280
     0
102
RTVSPost2010PropOp49
 70
     1
102
RTVSPost2010Prop50
 90
       50
102
RTVSPost2010PropOp50
 70
     1
102
RTVSPost2010Prop51ColorIndex
 90
      256
102
RTVSPost2010Prop51ColorRGB
 90
-16777216
102
RTVSPost2010PropOp51
 70
     0
102
RTVSPost2010Prop52
140
1.0
102
RTVSPost2010PropOp52
 70
     0
102
RTVSPost2010Prop53
 90
        2
102
RTVSPost2010PropOp53
 70
     1
102
RTVSPost2010Prop54
  1
strokes_ogs.tif
102
RTVSPost2010PropOp54
 70
     1
102
RTVSPost2010Prop55
280
     0
102
RTVSPost2010PropOp55
 70
     1
102
RTVSPost2010Prop56
140
1.0
102
RTVSPost2010PropOp56
 70
     1
102
RTVSPost2010Prop57
140
1.0
102
RTVSPost2010PropOp57
 70
     1
102
RTVSPropertyOp0
 70
     1
102
RTVSPropertyOp1
 70
     1
102
RTVSPropertyOp2
 70
     1
102
RTVSPropertyOp3
 70
     1
102
RTVSPropertyOp4
 70
     1
102
RTVSPropertyOp5
 70
     1
102
RTVSPropertyOp6
 70
     1
102
RTVSPropertyOp7
 70
     1
102
RTVSPropertyOp8
 70
     1
102
RTVSPropertyOp9
 70
     1
102
RTVSPropertyOp10
 70
     1
102
RTVSPropertyOp11
 70
     1
102
RTVSPropertyOp12
 70
     1
102
RTVSPropertyOp13
 70
     1
102
RTVSPropertyOp14
 70
     1
102
RTVSPropertyOp15
 70
     1
102
RTVSPropertyOp16
 70
     1
102
RTVSPropertyOp17
 70
     1
102
RTVSPropertyOp18
 70
     1
102
RTVSPropertyOp19
 70
     1
102
RTVSPropertyOp20
 70
     1
102
RTVSPropertyOp21
 70
     1
102
RTVSPropertyOp22
 70
     1
102
RTVSPropertyOp23
 70
     1
102
RTVSPropertyOp24
 70
     1
102
RTVSPropertyOp25
 70
     1
102
RTVSPropertyOp26
 70
     1
102
RTVSPropertyOp27
 70
     1
102
RTVSPropertyOp28
 70
     1
102
RTVSPropertyOp29
 70
     1
102
RTVSPropertyOp30
 70
     1
102
RTVSPropertyOp31
 70
     1
102
RTVSPropertyOp32
 70
     1
102
RTVSPropertyOp33
 70
     1
102
RTVSPropertyOp34
 70
     1
102
RTVSPropertyOp35
 70
     1
102
RTVSPropertyOp36
 70
     1
102
RTVSPropertyOp37
 70
     1
102
RTVSPropertyOp38
 70
     1
102
RTVSPropertyOp39
 70
     1
102
RTVSPropertyOp40
 70
     1
102
RTVSPropertyOp41
 70
     1
102
RTVSPropertyOp42
 70
     1
102
RTVSPropertyOp43
 70
     1
102
RTVSPropertyOp44
 70
     1
102
RTVSPropertyOp45
 70
     1
102
RTVSPropertyOp46
 70
     1
102
RTVSPropertyOp47
 70
     1
102
RTVSPropertyOp48
 70
     1
102
RTVSPropertyOp49
 70
     1
102
RTVSPropertyOp50
 70
     1
102
RTVSPropertyOp51
 70
     0
102
RTVSPropertyOp52
 70
     0
102
RTVSPropertyOp53
 70
     1
102
RTVSPropertyOp54
 70
     1
102
RTVSPropertyOp55
 70
     1
102
RTVSPropertyOp56
 70
     1
102
RTVSPropertyOp57
 70
     1
102
RTVSPropertyOp58
 70
     1
102
RTVSPropertyOp59
 70
     1
102
RTVSPropertyOp60
 70
     1
102
RTVSPropertyOp61
 70
     1
102
RTVSPropertyOp62
 70
     1
  0
XRECORD
  5
BF25
102
{ACAD_REACTORS
330
BF24
102
}
330
BF24
100
AcDbXrecord
280
     1
102
RTVSPost2010Prop28
280
     0
102
RTVSPost2010PropOp28
 70
     1
102
RTVSPost2010Prop29
280
     1
102
RTVSPost2010PropOp29
 70
     1
102
RTVSPost2010Prop30
280
     1
102
RTVSPost2010PropOp30
 70
     1
102
RTVSPost2010Prop31
280
     0
102
RTVSPost2010PropOp31
 70
     1
102
RTVSPost2010Prop32
280
     0
102
RTVSPost2010PropOp32
 70
     1
102
RTVSPost2010Prop33
280
     0
102
RTVSPost2010PropOp33
 70
     1
102
RTVSPost2010Prop34
280
     0
102
RTVSPost2010PropOp34
 70
     1
102
RTVSPost2010Prop35
280
     0
102
RTVSPost2010PropOp35
 70
     1
102
RTVSPost2010Prop36
280
     0
102
RTVSPost2010PropOp36
 70
     1
102
RTVSPost2010Prop37
 90
       50
102
RTVSPost2010PropOp37
 70
     1
102
RTVSPost2010Prop38
140
0.0
102
RTVSPost2010PropOp38
 70
     1
102
RTVSPost2010Prop39
140
1.0
102
RTVSPost2010PropOp39
 70
     1
102
RTVSPost2010Prop40
 90
        0
102
RTVSPost2010PropOp40
 70
     1
102
RTVSPost2010Prop41ColorIndex
 90
       18
102
RTVSPost2010Prop41ColorRGB
 90
        0
102
RTVSPost2010PropOp41
 70
     1
102
RTVSPost2010Prop42
 90
       50
102
RTVSPost2010PropOp42
 70
     1
102
RTVSPost2010Prop43
 90
        3
102
RTVSPost2010PropOp43
 70
     1
102
RTVSPost2010Prop44ColorIndex
 90
        5
102
RTVSPost2010Prop44ColorRGB
 90
      255
102
RTVSPost2010PropOp44
 70
     1
102
RTVSPost2010Prop45
280
     0
102
RTVSPost2010PropOp45
 70
     1
102
RTVSPost2010Prop46
 90
       50
102
RTVSPost2010PropOp46
 70
     1
102
RTVSPost2010Prop47
 90
       50
102
RTVSPost2010PropOp47
 70
     1
102
RTVSPost2010Prop48
 90
       50
102
RTVSPost2010PropOp48
 70
     1
102
RTVSPost2010Prop49
280
     0
102
RTVSPost2010PropOp49
 70
     1
102
RTVSPost2010Prop50
 90
       50
102
RTVSPost2010PropOp50
 70
     1
102
RTVSPost2010Prop51ColorIndex
 90
      256
102
RTVSPost2010Prop51ColorRGB
 90
-16777216
102
RTVSPost2010PropOp51
 70
     0
102
RTVSPost2010Prop52
140
1.0
102
RTVSPost2010PropOp52
 70
     0
102
RTVSPost2010Prop53
 90
        2
102
RTVSPost2010PropOp53
 70
     1
102
RTVSPost2010Prop54
  1
strokes_ogs.tif
102
RTVSPost2010PropOp54
 70
     1
102
RTVSPost2010Prop55
280
     0
102
RTVSPost2010PropOp55
 70
     1
102
RTVSPost2010Prop56
140
1.0
102
RTVSPost2010PropOp56
 70
     1
102
RTVSPost2010Prop57
140
1.0
102
RTVSPost2010PropOp57
 70
     1
102
RTVSPropertyOp0
 70
     1
102
RTVSPropertyOp1
 70
     1
102
RTVSPropertyOp2
 70
     1
102
RTVSPropertyOp3
 70
     1
102
RTVSPropertyOp4
 70
     1
102
RTVSPropertyOp5
 70
     1
102
RTVSPropertyOp6
 70
     1
102
RTVSPropertyOp7
 70
     1
102
RTVSPropertyOp8
 70
     1
102
RTVSPropertyOp9
 70
     1
102
RTVSPropertyOp10
 70
     1
102
RTVSPropertyOp11
 70
     1
102
RTVSPropertyOp12
 70
     1
102
RTVSPropertyOp13
 70
     1
102
RTVSPropertyOp14
 70
     1
102
RTVSPropertyOp15
 70
     1
102
RTVSPropertyOp16
 70
     1
102
RTVSPropertyOp17
 70
     1
102
RTVSPropertyOp18
 70
     1
102
RTVSPropertyOp19
 70
     1
102
RTVSPropertyOp20
 70
     1
102
RTVSPropertyOp21
 70
     1
102
RTVSPropertyOp22
 70
     1
102
RTVSPropertyOp23
 70
     1
102
RTVSPropertyOp24
 70
     1
102
RTVSPropertyOp25
 70
     1
102
RTVSPropertyOp26
 70
     1
102
RTVSPropertyOp27
 70
     1
102
RTVSPropertyOp28
 70
     1
102
RTVSPropertyOp29
 70
     1
102
RTVSPropertyOp30
 70
     1
102
RTVSPropertyOp31
 70
     1
102
RTVSPropertyOp32
 70
     1
102
RTVSPropertyOp33
 70
     1
102
RTVSPropertyOp34
 70
     1
102
RTVSPropertyOp35
 70
     1
102
RTVSPropertyOp36
 70
     1
102
RTVSPropertyOp37
 70
     1
102
RTVSPropertyOp38
 70
     1
102
RTVSPropertyOp39
 70
     1
102
RTVSPropertyOp40
 70
     1
102
RTVSPropertyOp41
 70
     1
102
RTVSPropertyOp42
 70
     1
102
RTVSPropertyOp43
 70
     1
102
RTVSPropertyOp44
 70
     1
102
RTVSPropertyOp45
 70
     1
102
RTVSPropertyOp46
 70
     1
102
RTVSPropertyOp47
 70
     1
102
RTVSPropertyOp48
 70
     1
102
RTVSPropertyOp49
 70
     1
102
RTVSPropertyOp50
 70
     1
102
RTVSPropertyOp51
 70
     0
102
RTVSPropertyOp52
 70
     0
102
RTVSPropertyOp53
 70
     1
102
RTVSPropertyOp54
 70
     1
102
RTVSPropertyOp55
 70
     1
102
RTVSPropertyOp56
 70
     1
102
RTVSPropertyOp57
 70
     1
102
RTVSPropertyOp58
 70
     1
102
RTVSPropertyOp59
 70
     1
102
RTVSPropertyOp60
 70
     1
102
RTVSPropertyOp61
 70
     1
102
RTVSPropertyOp62
 70
     1
  0
XRECORD
  5
BF33
102
{ACAD_REACTORS
330
BF32
102
}
330
BF32
100
AcDbXrecord
280
     1
102
RTVSPost2010Prop28
280
     0
102
RTVSPost2010PropOp28
 70
     1
102
RTVSPost2010Prop29
280
     1
102
RTVSPost2010PropOp29
 70
     1
102
RTVSPost2010Prop30
280
     1
102
RTVSPost2010PropOp30
 70
     1
102
RTVSPost2010Prop31
280
     0
102
RTVSPost2010PropOp31
 70
     1
102
RTVSPost2010Prop32
280
     0
102
RTVSPost2010PropOp32
 70
     1
102
RTVSPost2010Prop33
280
     0
102
RTVSPost2010PropOp33
 70
     1
102
RTVSPost2010Prop34
280
     0
102
RTVSPost2010PropOp34
 70
     1
102
RTVSPost2010Prop35
280
     0
102
RTVSPost2010PropOp35
 70
     1
102
RTVSPost2010Prop36
280
     0
102
RTVSPost2010PropOp36
 70
     1
102
RTVSPost2010Prop37
 90
       50
102
RTVSPost2010PropOp37
 70
     1
102
RTVSPost2010Prop38
140
0.0
102
RTVSPost2010PropOp38
 70
     1
102
RTVSPost2010Prop39
140
1.0
102
RTVSPost2010PropOp39
 70
     1
102
RTVSPost2010Prop40
 90
        0
102
RTVSPost2010PropOp40
 70
     1
102
RTVSPost2010Prop41ColorIndex
 90
       18
102
RTVSPost2010Prop41ColorRGB
 90
        0
102
RTVSPost2010PropOp41
 70
     1
102
RTVSPost2010Prop42
 90
       50
102
RTVSPost2010PropOp42
 70
     1
102
RTVSPost2010Prop43
 90
        3
102
RTVSPost2010PropOp43
 70
     1
102
RTVSPost2010Prop44ColorIndex
 90
        5
102
RTVSPost2010Prop44ColorRGB
 90
      255
102
RTVSPost2010PropOp44
 70
     1
102
RTVSPost2010Prop45
280
     0
102
RTVSPost2010PropOp45
 70
     1
102
RTVSPost2010Prop46
 90
       50
102
RTVSPost2010PropOp46
 70
     1
102
RTVSPost2010Prop47
 90
       50
102
RTVSPost2010PropOp47
 70
     1
102
RTVSPost2010Prop48
 90
       50
102
RTVSPost2010PropOp48
 70
     1
102
RTVSPost2010Prop49
280
     0
102
RTVSPost2010PropOp49
 70
     1
102
RTVSPost2010Prop50
 90
       50
102
RTVSPost2010PropOp50
 70
     1
102
RTVSPost2010Prop51ColorIndex
 90
      256
102
RTVSPost2010Prop51ColorRGB
 90
-16777216
102
RTVSPost2010PropOp51
 70
     0
102
RTVSPost2010Prop52
140
1.0
102
RTVSPost2010PropOp52
 70
     0
102
RTVSPost2010Prop53
 90
        2
102
RTVSPost2010PropOp53
 70
     1
102
RTVSPost2010Prop54
  1
strokes_ogs.tif
102
RTVSPost2010PropOp54
 70
     1
102
RTVSPost2010Prop55
280
     0
102
RTVSPost2010PropOp55
 70
     1
102
RTVSPost2010Prop56
140
1.0
102
RTVSPost2010PropOp56
 70
     1
102
RTVSPost2010Prop57
140
1.0
102
RTVSPost2010PropOp57
 70
     1
102
RTVSPropertyOp0
 70
     1
102
RTVSPropertyOp1
 70
     1
102
RTVSPropertyOp2
 70
     1
102
RTVSPropertyOp3
 70
     1
102
RTVSPropertyOp4
 70
     1
102
RTVSPropertyOp5
 70
     1
102
RTVSPropertyOp6
 70
     1
102
RTVSPropertyOp7
 70
     1
102
RTVSPropertyOp8
 70
     1
102
RTVSPropertyOp9
 70
     1
102
RTVSPropertyOp10
 70
     1
102
RTVSPropertyOp11
 70
     1
102
RTVSPropertyOp12
 70
     1
102
RTVSPropertyOp13
 70
     1
102
RTVSPropertyOp14
 70
     1
102
RTVSPropertyOp15
 70
     1
102
RTVSPropertyOp16
 70
     1
102
RTVSPropertyOp17
 70
     1
102
RTVSPropertyOp18
 70
     1
102
RTVSPropertyOp19
 70
     1
102
RTVSPropertyOp20
 70
     1
102
RTVSPropertyOp21
 70
     1
102
RTVSPropertyOp22
 70
     1
102
RTVSPropertyOp23
 70
     1
102
RTVSPropertyOp24
 70
     1
102
RTVSPropertyOp25
 70
     1
102
RTVSPropertyOp26
 70
     1
102
RTVSPropertyOp27
 70
     1
102
RTVSPropertyOp28
 70
     1
102
RTVSPropertyOp29
 70
     1
102
RTVSPropertyOp30
 70
     1
102
RTVSPropertyOp31
 70
     1
102
RTVSPropertyOp32
 70
     1
102
RTVSPropertyOp33
 70
     1
102
RTVSPropertyOp34
 70
     1
102
RTVSPropertyOp35
 70
     1
102
RTVSPropertyOp36
 70
     1
102
RTVSPropertyOp37
 70
     1
102
RTVSPropertyOp38
 70
     1
102
RTVSPropertyOp39
 70
     1
102
RTVSPropertyOp40
 70
     1
102
RTVSPropertyOp41
 70
     1
102
RTVSPropertyOp42
 70
     1
102
RTVSPropertyOp43
 70
     1
102
RTVSPropertyOp44
 70
     1
102
RTVSPropertyOp45
 70
     1
102
RTVSPropertyOp46
 70
     1
102
RTVSPropertyOp47
 70
     1
102
RTVSPropertyOp48
 70
     1
102
RTVSPropertyOp49
 70
     1
102
RTVSPropertyOp50
 70
     1
102
RTVSPropertyOp51
 70
     0
102
RTVSPropertyOp52
 70
     0
102
RTVSPropertyOp53
 70
     1
102
RTVSPropertyOp54
 70
     1
102
RTVSPropertyOp55
 70
     1
102
RTVSPropertyOp56
 70
     1
102
RTVSPropertyOp57
 70
     1
102
RTVSPropertyOp58
 70
     1
102
RTVSPropertyOp59
 70
     1
102
RTVSPropertyOp60
 70
     1
102
RTVSPropertyOp61
 70
     1
102
RTVSPropertyOp62
 70
     1
  0
XRECORD
  5
BF3B
102
{ACAD_REACTORS
330
BF3A
102
}
330
BF3A
100
AcDbXrecord
280
     1
102
RTVSPost2010Prop28
280
     0
102
RTVSPost2010PropOp28
 70
     1
102
RTVSPost2010Prop29
280
     1
102
RTVSPost2010PropOp29
 70
     1
102
RTVSPost2010Prop30
280
     1
102
RTVSPost2010PropOp30
 70
     1
102
RTVSPost2010Prop31
280
     0
102
RTVSPost2010PropOp31
 70
     1
102
RTVSPost2010Prop32
280
     0
102
RTVSPost2010PropOp32
 70
     1
102
RTVSPost2010Prop33
280
     0
102
RTVSPost2010PropOp33
 70
     1
102
RTVSPost2010Prop34
280
     0
102
RTVSPost2010PropOp34
 70
     1
102
RTVSPost2010Prop35
280
     0
102
RTVSPost2010PropOp35
 70
     1
102
RTVSPost2010Prop36
280
     0
102
RTVSPost2010PropOp36
 70
     1
102
RTVSPost2010Prop37
 90
       50
102
RTVSPost2010PropOp37
 70
     1
102
RTVSPost2010Prop38
140
0.0
102
RTVSPost2010PropOp38
 70
     1
102
RTVSPost2010Prop39
140
1.0
102
RTVSPost2010PropOp39
 70
     1
102
RTVSPost2010Prop40
 90
        0
102
RTVSPost2010PropOp40
 70
     1
102
RTVSPost2010Prop41ColorIndex
 90
       18
102
RTVSPost2010Prop41ColorRGB
 90
        0
102
RTVSPost2010PropOp41
 70
     1
102
RTVSPost2010Prop42
 90
       50
102
RTVSPost2010PropOp42
 70
     1
102
RTVSPost2010Prop43
 90
        3
102
RTVSPost2010PropOp43
 70
     1
102
RTVSPost2010Prop44ColorIndex
 90
        5
102
RTVSPost2010Prop44ColorRGB
 90
      255
102
RTVSPost2010PropOp44
 70
     1
102
RTVSPost2010Prop45
280
     0
102
RTVSPost2010PropOp45
 70
     1
102
RTVSPost2010Prop46
 90
       50
102
RTVSPost2010PropOp46
 70
     1
102
RTVSPost2010Prop47
 90
       50
102
RTVSPost2010PropOp47
 70
     1
102
RTVSPost2010Prop48
 90
       50
102
RTVSPost2010PropOp48
 70
     1
102
RTVSPost2010Prop49
280
     0
102
RTVSPost2010PropOp49
 70
     1
102
RTVSPost2010Prop50
 90
       50
102
RTVSPost2010PropOp50
 70
     1
102
RTVSPost2010Prop51ColorIndex
 90
      256
102
RTVSPost2010Prop51ColorRGB
 90
-16777216
102
RTVSPost2010PropOp51
 70
     0
102
RTVSPost2010Prop52
140
1.0
102
RTVSPost2010PropOp52
 70
     0
102
RTVSPost2010Prop53
 90
        2
102
RTVSPost2010PropOp53
 70
     1
102
RTVSPost2010Prop54
  1
strokes_ogs.tif
102
RTVSPost2010PropOp54
 70
     1
102
RTVSPost2010Prop55
280
     0
102
RTVSPost2010PropOp55
 70
     1
102
RTVSPost2010Prop56
140
1.0
102
RTVSPost2010PropOp56
 70
     1
102
RTVSPost2010Prop57
140
1.0
102
RTVSPost2010PropOp57
 70
     1
102
RTVSPropertyOp0
 70
     1
102
RTVSPropertyOp1
 70
     1
102
RTVSPropertyOp2
 70
     1
102
RTVSPropertyOp3
 70
     1
102
RTVSPropertyOp4
 70
     1
102
RTVSPropertyOp5
 70
     1
102
RTVSPropertyOp6
 70
     1
102
RTVSPropertyOp7
 70
     1
102
RTVSPropertyOp8
 70
     1
102
RTVSPropertyOp9
 70
     1
102
RTVSPropertyOp10
 70
     1
102
RTVSPropertyOp11
 70
     1
102
RTVSPropertyOp12
 70
     1
102
RTVSPropertyOp13
 70
     1
102
RTVSPropertyOp14
 70
     1
102
RTVSPropertyOp15
 70
     1
102
RTVSPropertyOp16
 70
     1
102
RTVSPropertyOp17
 70
     1
102
RTVSPropertyOp18
 70
     1
102
RTVSPropertyOp19
 70
     1
102
RTVSPropertyOp20
 70
     1
102
RTVSPropertyOp21
 70
     1
102
RTVSPropertyOp22
 70
     1
102
RTVSPropertyOp23
 70
     1
102
RTVSPropertyOp24
 70
     1
102
RTVSPropertyOp25
 70
     1
102
RTVSPropertyOp26
 70
     1
102
RTVSPropertyOp27
 70
     1
102
RTVSPropertyOp28
 70
     1
102
RTVSPropertyOp29
 70
     1
102
RTVSPropertyOp30
 70
     1
102
RTVSPropertyOp31
 70
     1
102
RTVSPropertyOp32
 70
     1
102
RTVSPropertyOp33
 70
     1
102
RTVSPropertyOp34
 70
     1
102
RTVSPropertyOp35
 70
     1
102
RTVSPropertyOp36
 70
     1
102
RTVSPropertyOp37
 70
     1
102
RTVSPropertyOp38
 70
     1
102
RTVSPropertyOp39
 70
     1
102
RTVSPropertyOp40
 70
     1
102
RTVSPropertyOp41
 70
     1
102
RTVSPropertyOp42
 70
     1
102
RTVSPropertyOp43
 70
     1
102
RTVSPropertyOp44
 70
     1
102
RTVSPropertyOp45
 70
     1
102
RTVSPropertyOp46
 70
     1
102
RTVSPropertyOp47
 70
     1
102
RTVSPropertyOp48
 70
     1
102
RTVSPropertyOp49
 70
     1
102
RTVSPropertyOp50
 70
     1
102
RTVSPropertyOp51
 70
     0
102
RTVSPropertyOp52
 70
     0
102
RTVSPropertyOp53
 70
     1
102
RTVSPropertyOp54
 70
     1
102
RTVSPropertyOp55
 70
     1
102
RTVSPropertyOp56
 70
     1
102
RTVSPropertyOp57
 70
     1
102
RTVSPropertyOp58
 70
     1
102
RTVSPropertyOp59
 70
     1
102
RTVSPropertyOp60
 70
     1
102
RTVSPropertyOp61
 70
     1
102
RTVSPropertyOp62
 70
     1
  0
XRECORD
  5
BF2D
102
{ACAD_REACTORS
330
BF2C
102
}
330
BF2C
100
AcDbXrecord
280
     1
102
RTVSPost2010Prop28
280
     0
102
RTVSPost2010PropOp28
 70
     1
102
RTVSPost2010Prop29
280
     1
102
RTVSPost2010PropOp29
 70
     1
102
RTVSPost2010Prop30
280
     1
102
RTVSPost2010PropOp30
 70
     1
102
RTVSPost2010Prop31
280
     0
102
RTVSPost2010PropOp31
 70
     1
102
RTVSPost2010Prop32
280
     0
102
RTVSPost2010PropOp32
 70
     1
102
RTVSPost2010Prop33
280
     0
102
RTVSPost2010PropOp33
 70
     1
102
RTVSPost2010Prop34
280
     0
102
RTVSPost2010PropOp34
 70
     1
102
RTVSPost2010Prop35
280
     0
102
RTVSPost2010PropOp35
 70
     1
102
RTVSPost2010Prop36
280
     0
102
RTVSPost2010PropOp36
 70
     1
102
RTVSPost2010Prop37
 90
       50
102
RTVSPost2010PropOp37
 70
     1
102
RTVSPost2010Prop38
140
0.0
102
RTVSPost2010PropOp38
 70
     1
102
RTVSPost2010Prop39
140
1.0
102
RTVSPost2010PropOp39
 70
     1
102
RTVSPost2010Prop40
 90
        0
102
RTVSPost2010PropOp40
 70
     1
102
RTVSPost2010Prop41ColorIndex
 90
       18
102
RTVSPost2010Prop41ColorRGB
 90
        0
102
RTVSPost2010PropOp41
 70
     1
102
RTVSPost2010Prop42
 90
       50
102
RTVSPost2010PropOp42
 70
     1
102
RTVSPost2010Prop43
 90
        3
102
RTVSPost2010PropOp43
 70
     1
102
RTVSPost2010Prop44ColorIndex
 90
        5
102
RTVSPost2010Prop44ColorRGB
 90
      255
102
RTVSPost2010PropOp44
 70
     1
102
RTVSPost2010Prop45
280
     0
102
RTVSPost2010PropOp45
 70
     1
102
RTVSPost2010Prop46
 90
       50
102
RTVSPost2010PropOp46
 70
     1
102
RTVSPost2010Prop47
 90
       50
102
RTVSPost2010PropOp47
 70
     1
102
RTVSPost2010Prop48
 90
       50
102
RTVSPost2010PropOp48
 70
     1
102
RTVSPost2010Prop49
280
     0
102
RTVSPost2010PropOp49
 70
     1
102
RTVSPost2010Prop50
 90
       50
102
RTVSPost2010PropOp50
 70
     1
102
RTVSPost2010Prop51ColorIndex
 90
      256
102
RTVSPost2010Prop51ColorRGB
 90
-16777216
102
RTVSPost2010PropOp51
 70
     0
102
RTVSPost2010Prop52
140
1.0
102
RTVSPost2010PropOp52
 70
     0
102
RTVSPost2010Prop53
 90
        2
102
RTVSPost2010PropOp53
 70
     1
102
RTVSPost2010Prop54
  1
strokes_ogs.tif
102
RTVSPost2010PropOp54
 70
     1
102
RTVSPost2010Prop55
280
     0
102
RTVSPost2010PropOp55
 70
     1
102
RTVSPost2010Prop56
140
1.0
102
RTVSPost2010PropOp56
 70
     1
102
RTVSPost2010Prop57
140
1.0
102
RTVSPost2010PropOp57
 70
     1
102
RTVSPropertyOp0
 70
     1
102
RTVSPropertyOp1
 70
     1
102
RTVSPropertyOp2
 70
     1
102
RTVSPropertyOp3
 70
     1
102
RTVSPropertyOp4
 70
     1
102
RTVSPropertyOp5
 70
     1
102
RTVSPropertyOp6
 70
     1
102
RTVSPropertyOp7
 70
     1
102
RTVSPropertyOp8
 70
     1
102
RTVSPropertyOp9
 70
     1
102
RTVSPropertyOp10
 70
     1
102
RTVSPropertyOp11
 70
     1
102
RTVSPropertyOp12
 70
     1
102
RTVSPropertyOp13
 70
     1
102
RTVSPropertyOp14
 70
     1
102
RTVSPropertyOp15
 70
     1
102
RTVSPropertyOp16
 70
     1
102
RTVSPropertyOp17
 70
     1
102
RTVSPropertyOp18
 70
     1
102
RTVSPropertyOp19
 70
     1
102
RTVSPropertyOp20
 70
     1
102
RTVSPropertyOp21
 70
     1
102
RTVSPropertyOp22
 70
     1
102
RTVSPropertyOp23
 70
     1
102
RTVSPropertyOp24
 70
     1
102
RTVSPropertyOp25
 70
     1
102
RTVSPropertyOp26
 70
     1
102
RTVSPropertyOp27
 70
     1
102
RTVSPropertyOp28
 70
     1
102
RTVSPropertyOp29
 70
     1
102
RTVSPropertyOp30
 70
     1
102
RTVSPropertyOp31
 70
     1
102
RTVSPropertyOp32
 70
     1
102
RTVSPropertyOp33
 70
     1
102
RTVSPropertyOp34
 70
     1
102
RTVSPropertyOp35
 70
     1
102
RTVSPropertyOp36
 70
     1
102
RTVSPropertyOp37
 70
     1
102
RTVSPropertyOp38
 70
     1
102
RTVSPropertyOp39
 70
     1
102
RTVSPropertyOp40
 70
     1
102
RTVSPropertyOp41
 70
     1
102
RTVSPropertyOp42
 70
     1
102
RTVSPropertyOp43
 70
     1
102
RTVSPropertyOp44
 70
     1
102
RTVSPropertyOp45
 70
     1
102
RTVSPropertyOp46
 70
     1
102
RTVSPropertyOp47
 70
     1
102
RTVSPropertyOp48
 70
     1
102
RTVSPropertyOp49
 70
     1
102
RTVSPropertyOp50
 70
     1
102
RTVSPropertyOp51
 70
     0
102
RTVSPropertyOp52
 70
     0
102
RTVSPropertyOp53
 70
     1
102
RTVSPropertyOp54
 70
     1
102
RTVSPropertyOp55
 70
     1
102
RTVSPropertyOp56
 70
     1
102
RTVSPropertyOp57
 70
     1
102
RTVSPropertyOp58
 70
     1
102
RTVSPropertyOp59
 70
     1
102
RTVSPropertyOp60
 70
     1
102
RTVSPropertyOp61
 70
     1
102
RTVSPropertyOp62
 70
     1
  0
XRECORD
  5
BF31
102
{ACAD_REACTORS
330
BF30
102
}
330
BF30
100
AcDbXrecord
280
     1
102
RTVSPost2010Prop28
280
     0
102
RTVSPost2010PropOp28
 70
     1
102
RTVSPost2010Prop29
280
     1
102
RTVSPost2010PropOp29
 70
     1
102
RTVSPost2010Prop30
280
     1
102
RTVSPost2010PropOp30
 70
     1
102
RTVSPost2010Prop31
280
     0
102
RTVSPost2010PropOp31
 70
     1
102
RTVSPost2010Prop32
280
     0
102
RTVSPost2010PropOp32
 70
     1
102
RTVSPost2010Prop33
280
     0
102
RTVSPost2010PropOp33
 70
     1
102
RTVSPost2010Prop34
280
     0
102
RTVSPost2010PropOp34
 70
     1
102
RTVSPost2010Prop35
280
     0
102
RTVSPost2010PropOp35
 70
     1
102
RTVSPost2010Prop36
280
     0
102
RTVSPost2010PropOp36
 70
     1
102
RTVSPost2010Prop37
 90
       50
102
RTVSPost2010PropOp37
 70
     1
102
RTVSPost2010Prop38
140
0.0
102
RTVSPost2010PropOp38
 70
     1
102
RTVSPost2010Prop39
140
1.0
102
RTVSPost2010PropOp39
 70
     1
102
RTVSPost2010Prop40
 90
        0
102
RTVSPost2010PropOp40
 70
     1
102
RTVSPost2010Prop41ColorIndex
 90
       18
102
RTVSPost2010Prop41ColorRGB
 90
        0
102
RTVSPost2010PropOp41
 70
     1
102
RTVSPost2010Prop42
 90
       50
102
RTVSPost2010PropOp42
 70
     1
102
RTVSPost2010Prop43
 90
        3
102
RTVSPost2010PropOp43
 70
     1
102
RTVSPost2010Prop44ColorIndex
 90
        5
102
RTVSPost2010Prop44ColorRGB
 90
      255
102
RTVSPost2010PropOp44
 70
     1
102
RTVSPost2010Prop45
280
     0
102
RTVSPost2010PropOp45
 70
     1
102
RTVSPost2010Prop46
 90
       50
102
RTVSPost2010PropOp46
 70
     1
102
RTVSPost2010Prop47
 90
       50
102
RTVSPost2010PropOp47
 70
     1
102
RTVSPost2010Prop48
 90
       50
102
RTVSPost2010PropOp48
 70
     1
102
RTVSPost2010Prop49
280
     0
102
RTVSPost2010PropOp49
 70
     1
102
RTVSPost2010Prop50
 90
       50
102
RTVSPost2010PropOp50
 70
     1
102
RTVSPost2010Prop51ColorIndex
 90
      256
102
RTVSPost2010Prop51ColorRGB
 90
-16777216
102
RTVSPost2010PropOp51
 70
     0
102
RTVSPost2010Prop52
140
1.0
102
RTVSPost2010PropOp52
 70
     0
102
RTVSPost2010Prop53
 90
        2
102
RTVSPost2010PropOp53
 70
     1
102
RTVSPost2010Prop54
  1
strokes_ogs.tif
102
RTVSPost2010PropOp54
 70
     1
102
RTVSPost2010Prop55
280
     0
102
RTVSPost2010PropOp55
 70
     1
102
RTVSPost2010Prop56
140
1.0
102
RTVSPost2010PropOp56
 70
     1
102
RTVSPost2010Prop57
140
1.0
102
RTVSPost2010PropOp57
 70
     1
102
RTVSPropertyOp0
 70
     1
102
RTVSPropertyOp1
 70
     1
102
RTVSPropertyOp2
 70
     1
102
RTVSPropertyOp3
 70
     1
102
RTVSPropertyOp4
 70
     1
102
RTVSPropertyOp5
 70
     1
102
RTVSPropertyOp6
 70
     1
102
RTVSPropertyOp7
 70
     1
102
RTVSPropertyOp8
 70
     1
102
RTVSPropertyOp9
 70
     1
102
RTVSPropertyOp10
 70
     1
102
RTVSPropertyOp11
 70
     1
102
RTVSPropertyOp12
 70
     1
102
RTVSPropertyOp13
 70
     1
102
RTVSPropertyOp14
 70
     1
102
RTVSPropertyOp15
 70
     1
102
RTVSPropertyOp16
 70
     1
102
RTVSPropertyOp17
 70
     1
102
RTVSPropertyOp18
 70
     1
102
RTVSPropertyOp19
 70
     1
102
RTVSPropertyOp20
 70
     1
102
RTVSPropertyOp21
 70
     1
102
RTVSPropertyOp22
 70
     1
102
RTVSPropertyOp23
 70
     1
102
RTVSPropertyOp24
 70
     1
102
RTVSPropertyOp25
 70
     1
102
RTVSPropertyOp26
 70
     1
102
RTVSPropertyOp27
 70
     1
102
RTVSPropertyOp28
 70
     1
102
RTVSPropertyOp29
 70
     1
102
RTVSPropertyOp30
 70
     1
102
RTVSPropertyOp31
 70
     1
102
RTVSPropertyOp32
 70
     1
102
RTVSPropertyOp33
 70
     1
102
RTVSPropertyOp34
 70
     1
102
RTVSPropertyOp35
 70
     1
102
RTVSPropertyOp36
 70
     1
102
RTVSPropertyOp37
 70
     1
102
RTVSPropertyOp38
 70
     1
102
RTVSPropertyOp39
 70
     1
102
RTVSPropertyOp40
 70
     1
102
RTVSPropertyOp41
 70
     1
102
RTVSPropertyOp42
 70
     1
102
RTVSPropertyOp43
 70
     1
102
RTVSPropertyOp44
 70
     1
102
RTVSPropertyOp45
 70
     1
102
RTVSPropertyOp46
 70
     1
102
RTVSPropertyOp47
 70
     1
102
RTVSPropertyOp48
 70
     1
102
RTVSPropertyOp49
 70
     1
102
RTVSPropertyOp50
 70
     1
102
RTVSPropertyOp51
 70
     0
102
RTVSPropertyOp52
 70
     0
102
RTVSPropertyOp53
 70
     1
102
RTVSPropertyOp54
 70
     1
102
RTVSPropertyOp55
 70
     1
102
RTVSPropertyOp56
 70
     1
102
RTVSPropertyOp57
 70
     1
102
RTVSPropertyOp58
 70
     1
102
RTVSPropertyOp59
 70
     1
102
RTVSPropertyOp60
 70
     1
102
RTVSPropertyOp61
 70
     1
102
RTVSPropertyOp62
 70
     1
  0
XRECORD
  5
BF43
102
{ACAD_REACTORS
330
BF42
102
}
330
BF42
100
AcDbXrecord
280
     1
102
RTVSPost2010Prop28
280
     0
102
RTVSPost2010PropOp28
 70
     1
102
RTVSPost2010Prop29
280
     1
102
RTVSPost2010PropOp29
 70
     1
102
RTVSPost2010Prop30
280
     1
102
RTVSPost2010PropOp30
 70
     1
102
RTVSPost2010Prop31
280
     0
102
RTVSPost2010PropOp31
 70
     1
102
RTVSPost2010Prop32
280
     0
102
RTVSPost2010PropOp32
 70
     1
102
RTVSPost2010Prop33
280
     0
102
RTVSPost2010PropOp33
 70
     1
102
RTVSPost2010Prop34
280
     0
102
RTVSPost2010PropOp34
 70
     1
102
RTVSPost2010Prop35
280
     0
102
RTVSPost2010PropOp35
 70
     1
102
RTVSPost2010Prop36
280
     0
102
RTVSPost2010PropOp36
 70
     1
102
RTVSPost2010Prop37
 90
       50
102
RTVSPost2010PropOp37
 70
     1
102
RTVSPost2010Prop38
140
0.0
102
RTVSPost2010PropOp38
 70
     1
102
RTVSPost2010Prop39
140
1.0
102
RTVSPost2010PropOp39
 70
     1
102
RTVSPost2010Prop40
 90
        0
102
RTVSPost2010PropOp40
 70
     1
102
RTVSPost2010Prop41ColorIndex
 90
       18
102
RTVSPost2010Prop41ColorRGB
 90
        0
102
RTVSPost2010PropOp41
 70
     1
102
RTVSPost2010Prop42
 90
       50
102
RTVSPost2010PropOp42
 70
     1
102
RTVSPost2010Prop43
 90
        3
102
RTVSPost2010PropOp43
 70
     1
102
RTVSPost2010Prop44ColorIndex
 90
        5
102
RTVSPost2010Prop44ColorRGB
 90
      255
102
RTVSPost2010PropOp44
 70
     1
102
RTVSPost2010Prop45
280
     0
102
RTVSPost2010PropOp45
 70
     1
102
RTVSPost2010Prop46
 90
       50
102
RTVSPost2010PropOp46
 70
     1
102
RTVSPost2010Prop47
 90
       50
102
RTVSPost2010PropOp47
 70
     1
102
RTVSPost2010Prop48
 90
       50
102
RTVSPost2010PropOp48
 70
     1
102
RTVSPost2010Prop49
280
     0
102
RTVSPost2010PropOp49
 70
     1
102
RTVSPost2010Prop50
 90
       50
102
RTVSPost2010PropOp50
 70
     1
102
RTVSPost2010Prop51ColorIndex
 90
      256
102
RTVSPost2010Prop51ColorRGB
 90
-16777216
102
RTVSPost2010PropOp51
 70
     0
102
RTVSPost2010Prop52
140
1.0
102
RTVSPost2010PropOp52
 70
     0
102
RTVSPost2010Prop53
 90
        2
102
RTVSPost2010PropOp53
 70
     1
102
RTVSPost2010Prop54
  1
strokes_ogs.tif
102
RTVSPost2010PropOp54
 70
     1
102
RTVSPost2010Prop55
280
     0
102
RTVSPost2010PropOp55
 70
     1
102
RTVSPost2010Prop56
140
1.0
102
RTVSPost2010PropOp56
 70
     1
102
RTVSPost2010Prop57
140
1.0
102
RTVSPost2010PropOp57
 70
     1
102
RTVSPropertyOp0
 70
     0
102
RTVSPropertyOp1
 70
     0
102
RTVSPropertyOp2
 70
     0
102
RTVSPropertyOp3
 70
     0
102
RTVSPropertyOp4
 70
     0
102
RTVSPropertyOp5
 70
     0
102
RTVSPropertyOp6
 70
     0
102
RTVSPropertyOp7
 70
     0
102
RTVSPropertyOp8
 70
     0
102
RTVSPropertyOp9
 70
     0
102
RTVSPropertyOp10
 70
     0
102
RTVSPropertyOp11
 70
     0
102
RTVSPropertyOp12
 70
     0
102
RTVSPropertyOp13
 70
     0
102
RTVSPropertyOp14
 70
     2
102
RTVSPropertyOp15
 70
     0
102
RTVSPropertyOp16
 70
     0
102
RTVSPropertyOp17
 70
     0
102
RTVSPropertyOp18
 70
     0
102
RTVSPropertyOp19
 70
     0
102
RTVSPropertyOp20
 70
     0
102
RTVSPropertyOp21
 70
     0
102
RTVSPropertyOp22
 70
     0
102
RTVSPropertyOp23
 70
     0
102
RTVSPropertyOp24
 70
     0
102
RTVSPropertyOp25
 70
     0
102
RTVSPropertyOp26
 70
     0
102
RTVSPropertyOp27
 70
     0
102
RTVSPropertyOp28
 70
     1
102
RTVSPropertyOp29
 70
     1
102
RTVSPropertyOp30
 70
     1
102
RTVSPropertyOp31
 70
     1
102
RTVSPropertyOp32
 70
     1
102
RTVSPropertyOp33
 70
     1
102
RTVSPropertyOp34
 70
     1
102
RTVSPropertyOp35
 70
     1
102
RTVSPropertyOp36
 70
     1
102
RTVSPropertyOp37
 70
     1
102
RTVSPropertyOp38
 70
     1
102
RTVSPropertyOp39
 70
     1
102
RTVSPropertyOp40
 70
     1
102
RTVSPropertyOp41
 70
     1
102
RTVSPropertyOp42
 70
     1
102
RTVSPropertyOp43
 70
     1
102
RTVSPropertyOp44
 70
     1
102
RTVSPropertyOp45
 70
     1
102
RTVSPropertyOp46
 70
     1
102
RTVSPropertyOp47
 70
     1
102
RTVSPropertyOp48
 70
     1
102
RTVSPropertyOp49
 70
     1
102
RTVSPropertyOp50
 70
     1
102
RTVSPropertyOp51
 70
     0
102
RTVSPropertyOp52
 70
     0
102
RTVSPropertyOp53
 70
     1
102
RTVSPropertyOp54
 70
     1
102
RTVSPropertyOp55
 70
     1
102
RTVSPropertyOp56
 70
     1
102
RTVSPropertyOp57
 70
     1
102
RTVSPropertyOp58
 70
     1
102
RTVSPropertyOp59
 70
     1
102
RTVSPropertyOp60
 70
     1
102
RTVSPropertyOp61
 70
     1
102
RTVSPropertyOp62
 70
     1
  0
XRECORD
  5
BF39
102
{ACAD_REACTORS
330
BF38
102
}
330
BF38
100
AcDbXrecord
280
     1
102
RTVSPost2010Prop28
280
     0
102
RTVSPost2010PropOp28
 70
     1
102
RTVSPost2010Prop29
280
     1
102
RTVSPost2010PropOp29
 70
     1
102
RTVSPost2010Prop30
280
     1
102
RTVSPost2010PropOp30
 70
     1
102
RTVSPost2010Prop31
280
     0
102
RTVSPost2010PropOp31
 70
     1
102
RTVSPost2010Prop32
280
     0
102
RTVSPost2010PropOp32
 70
     1
102
RTVSPost2010Prop33
280
     0
102
RTVSPost2010PropOp33
 70
     1
102
RTVSPost2010Prop34
280
     0
102
RTVSPost2010PropOp34
 70
     1
102
RTVSPost2010Prop35
280
     0
102
RTVSPost2010PropOp35
 70
     1
102
RTVSPost2010Prop36
280
     0
102
RTVSPost2010PropOp36
 70
     1
102
RTVSPost2010Prop37
 90
       50
102
RTVSPost2010PropOp37
 70
     1
102
RTVSPost2010Prop38
140
0.0
102
RTVSPost2010PropOp38
 70
     1
102
RTVSPost2010Prop39
140
1.0
102
RTVSPost2010PropOp39
 70
     1
102
RTVSPost2010Prop40
 90
        0
102
RTVSPost2010PropOp40
 70
     1
102
RTVSPost2010Prop41ColorIndex
 90
       18
102
RTVSPost2010Prop41ColorRGB
 90
        0
102
RTVSPost2010PropOp41
 70
     1
102
RTVSPost2010Prop42
 90
       50
102
RTVSPost2010PropOp42
 70
     1
102
RTVSPost2010Prop43
 90
        3
102
RTVSPost2010PropOp43
 70
     1
102
RTVSPost2010Prop44ColorIndex
 90
        5
102
RTVSPost2010Prop44ColorRGB
 90
      255
102
RTVSPost2010PropOp44
 70
     1
102
RTVSPost2010Prop45
280
     0
102
RTVSPost2010PropOp45
 70
     1
102
RTVSPost2010Prop46
 90
       50
102
RTVSPost2010PropOp46
 70
     1
102
RTVSPost2010Prop47
 90
       50
102
RTVSPost2010PropOp47
 70
     1
102
RTVSPost2010Prop48
 90
       50
102
RTVSPost2010PropOp48
 70
     1
102
RTVSPost2010Prop49
280
     0
102
RTVSPost2010PropOp49
 70
     1
102
RTVSPost2010Prop50
 90
       50
102
RTVSPost2010PropOp50
 70
     1
102
RTVSPost2010Prop51ColorIndex
 90
      256
102
RTVSPost2010Prop51ColorRGB
 90
-16777216
102
RTVSPost2010PropOp51
 70
     0
102
RTVSPost2010Prop52
140
1.0
102
RTVSPost2010PropOp52
 70
     0
102
RTVSPost2010Prop53
 90
        2
102
RTVSPost2010PropOp53
 70
     1
102
RTVSPost2010Prop54
  1
strokes_ogs.tif
102
RTVSPost2010PropOp54
 70
     1
102
RTVSPost2010Prop55
280
     0
102
RTVSPost2010PropOp55
 70
     1
102
RTVSPost2010Prop56
140
1.0
102
RTVSPost2010PropOp56
 70
     1
102
RTVSPost2010Prop57
140
1.0
102
RTVSPost2010PropOp57
 70
     1
102
RTVSPropertyOp0
 70
     1
102
RTVSPropertyOp1
 70
     1
102
RTVSPropertyOp2
 70
     1
102
RTVSPropertyOp3
 70
     1
102
RTVSPropertyOp4
 70
     1
102
RTVSPropertyOp5
 70
     1
102
RTVSPropertyOp6
 70
     1
102
RTVSPropertyOp7
 70
     1
102
RTVSPropertyOp8
 70
     1
102
RTVSPropertyOp9
 70
     1
102
RTVSPropertyOp10
 70
     1
102
RTVSPropertyOp11
 70
     1
102
RTVSPropertyOp12
 70
     1
102
RTVSPropertyOp13
 70
     1
102
RTVSPropertyOp14
 70
     1
102
RTVSPropertyOp15
 70
     1
102
RTVSPropertyOp16
 70
     1
102
RTVSPropertyOp17
 70
     1
102
RTVSPropertyOp18
 70
     1
102
RTVSPropertyOp19
 70
     1
102
RTVSPropertyOp20
 70
     1
102
RTVSPropertyOp21
 70
     1
102
RTVSPropertyOp22
 70
     1
102
RTVSPropertyOp23
 70
     1
102
RTVSPropertyOp24
 70
     1
102
RTVSPropertyOp25
 70
     1
102
RTVSPropertyOp26
 70
     1
102
RTVSPropertyOp27
 70
     1
102
RTVSPropertyOp28
 70
     1
102
RTVSPropertyOp29
 70
     1
102
RTVSPropertyOp30
 70
     1
102
RTVSPropertyOp31
 70
     1
102
RTVSPropertyOp32
 70
     1
102
RTVSPropertyOp33
 70
     1
102
RTVSPropertyOp34
 70
     1
102
RTVSPropertyOp35
 70
     1
102
RTVSPropertyOp36
 70
     1
102
RTVSPropertyOp37
 70
     1
102
RTVSPropertyOp38
 70
     1
102
RTVSPropertyOp39
 70
     1
102
RTVSPropertyOp40
 70
     1
102
RTVSPropertyOp41
 70
     1
102
RTVSPropertyOp42
 70
     1
102
RTVSPropertyOp43
 70
     1
102
RTVSPropertyOp44
 70
     1
102
RTVSPropertyOp45
 70
     1
102
RTVSPropertyOp46
 70
     1
102
RTVSPropertyOp47
 70
     1
102
RTVSPropertyOp48
 70
     1
102
RTVSPropertyOp49
 70
     1
102
RTVSPropertyOp50
 70
     1
102
RTVSPropertyOp51
 70
     0
102
RTVSPropertyOp52
 70
     0
102
RTVSPropertyOp53
 70
     1
102
RTVSPropertyOp54
 70
     1
102
RTVSPropertyOp55
 70
     1
102
RTVSPropertyOp56
 70
     1
102
RTVSPropertyOp57
 70
     1
102
RTVSPropertyOp58
 70
     1
102
RTVSPropertyOp59
 70
     1
102
RTVSPropertyOp60
 70
     1
102
RTVSPropertyOp61
 70
     1
102
RTVSPropertyOp62
 70
     1
  0
XRECORD
  5
BF1D
102
{ACAD_REACTORS
330
BF1C
102
}
330
BF1C
100
AcDbXrecord
280
     1
102
RTVSPost2010Prop28
280
     0
102
RTVSPost2010PropOp28
 70
     1
102
RTVSPost2010Prop29
280
     1
102
RTVSPost2010PropOp29
 70
     1
102
RTVSPost2010Prop30
280
     1
102
RTVSPost2010PropOp30
 70
     1
102
RTVSPost2010Prop31
280
     0
102
RTVSPost2010PropOp31
 70
     1
102
RTVSPost2010Prop32
280
     0
102
RTVSPost2010PropOp32
 70
     1
102
RTVSPost2010Prop33
280
     0
102
RTVSPost2010PropOp33
 70
     1
102
RTVSPost2010Prop34
280
     0
102
RTVSPost2010PropOp34
 70
     1
102
RTVSPost2010Prop35
280
     0
102
RTVSPost2010PropOp35
 70
     1
102
RTVSPost2010Prop36
280
     0
102
RTVSPost2010PropOp36
 70
     1
102
RTVSPost2010Prop37
 90
       50
102
RTVSPost2010PropOp37
 70
     1
102
RTVSPost2010Prop38
140
0.0
102
RTVSPost2010PropOp38
 70
     1
102
RTVSPost2010Prop39
140
1.0
102
RTVSPost2010PropOp39
 70
     1
102
RTVSPost2010Prop40
 90
        0
102
RTVSPost2010PropOp40
 70
     1
102
RTVSPost2010Prop41ColorIndex
 90
       18
102
RTVSPost2010Prop41ColorRGB
 90
        0
102
RTVSPost2010PropOp41
 70
     1
102
RTVSPost2010Prop42
 90
       50
102
RTVSPost2010PropOp42
 70
     1
102
RTVSPost2010Prop43
 90
        3
102
RTVSPost2010PropOp43
 70
     1
102
RTVSPost2010Prop44ColorIndex
 90
        5
102
RTVSPost2010Prop44ColorRGB
 90
      255
102
RTVSPost2010PropOp44
 70
     1
102
RTVSPost2010Prop45
280
     0
102
RTVSPost2010PropOp45
 70
     1
102
RTVSPost2010Prop46
 90
       50
102
RTVSPost2010PropOp46
 70
     1
102
RTVSPost2010Prop47
 90
       50
102
RTVSPost2010PropOp47
 70
     1
102
RTVSPost2010Prop48
 90
       50
102
RTVSPost2010PropOp48
 70
     1
102
RTVSPost2010Prop49
280
     0
102
RTVSPost2010PropOp49
 70
     1
102
RTVSPost2010Prop50
 90
       50
102
RTVSPost2010PropOp50
 70
     1
102
RTVSPost2010Prop51ColorIndex
 90
      256
102
RTVSPost2010Prop51ColorRGB
 90
-16777216
102
RTVSPost2010PropOp51
 70
     0
102
RTVSPost2010Prop52
140
1.0
102
RTVSPost2010PropOp52
 70
     0
102
RTVSPost2010Prop53
 90
        2
102
RTVSPost2010PropOp53
 70
     1
102
RTVSPost2010Prop54
  1
strokes_ogs.tif
102
RTVSPost2010PropOp54
 70
     1
102
RTVSPost2010Prop55
280
     0
102
RTVSPost2010PropOp55
 70
     1
102
RTVSPost2010Prop56
140
1.0
102
RTVSPost2010PropOp56
 70
     1
102
RTVSPost2010Prop57
140
1.0
102
RTVSPost2010PropOp57
 70
     1
102
RTVSPropertyOp0
 70
     1
102
RTVSPropertyOp1
 70
     1
102
RTVSPropertyOp2
 70
     1
102
RTVSPropertyOp3
 70
     1
102
RTVSPropertyOp4
 70
     1
102
RTVSPropertyOp5
 70
     1
102
RTVSPropertyOp6
 70
     1
102
RTVSPropertyOp7
 70
     1
102
RTVSPropertyOp8
 70
     1
102
RTVSPropertyOp9
 70
     1
102
RTVSPropertyOp10
 70
     1
102
RTVSPropertyOp11
 70
     1
102
RTVSPropertyOp12
 70
     1
102
RTVSPropertyOp13
 70
     1
102
RTVSPropertyOp14
 70
     1
102
RTVSPropertyOp15
 70
     1
102
RTVSPropertyOp16
 70
     1
102
RTVSPropertyOp17
 70
     1
102
RTVSPropertyOp18
 70
     1
102
RTVSPropertyOp19
 70
     1
102
RTVSPropertyOp20
 70
     1
102
RTVSPropertyOp21
 70
     1
102
RTVSPropertyOp22
 70
     1
102
RTVSPropertyOp23
 70
     1
102
RTVSPropertyOp24
 70
     1
102
RTVSPropertyOp25
 70
     1
102
RTVSPropertyOp26
 70
     1
102
RTVSPropertyOp27
 70
     1
102
RTVSPropertyOp28
 70
     1
102
RTVSPropertyOp29
 70
     1
102
RTVSPropertyOp30
 70
     1
102
RTVSPropertyOp31
 70
     1
102
RTVSPropertyOp32
 70
     1
102
RTVSPropertyOp33
 70
     1
102
RTVSPropertyOp34
 70
     1
102
RTVSPropertyOp35
 70
     1
102
RTVSPropertyOp36
 70
     1
102
RTVSPropertyOp37
 70
     1
102
RTVSPropertyOp38
 70
     1
102
RTVSPropertyOp39
 70
     1
102
RTVSPropertyOp40
 70
     1
102
RTVSPropertyOp41
 70
     1
102
RTVSPropertyOp42
 70
     1
102
RTVSPropertyOp43
 70
     1
102
RTVSPropertyOp44
 70
     1
102
RTVSPropertyOp45
 70
     1
102
RTVSPropertyOp46
 70
     1
102
RTVSPropertyOp47
 70
     1
102
RTVSPropertyOp48
 70
     1
102
RTVSPropertyOp49
 70
     1
102
RTVSPropertyOp50
 70
     1
102
RTVSPropertyOp51
 70
     0
102
RTVSPropertyOp52
 70
     0
102
RTVSPropertyOp53
 70
     1
102
RTVSPropertyOp54
 70
     1
102
RTVSPropertyOp55
 70
     1
102
RTVSPropertyOp56
 70
     1
102
RTVSPropertyOp57
 70
     1
102
RTVSPropertyOp58
 70
     1
102
RTVSPropertyOp59
 70
     1
102
RTVSPropertyOp60
 70
     1
102
RTVSPropertyOp61
 70
     1
102
RTVSPropertyOp62
 70
     1
  0
XRECORD
  5
BF1F
102
{ACAD_REACTORS
330
BF1E
102
}
330
BF1E
100
AcDbXrecord
280
     1
102
RTVSPost2010Prop28
280
     0
102
RTVSPost2010PropOp28
 70
     1
102
RTVSPost2010Prop29
280
     1
102
RTVSPost2010PropOp29
 70
     1
102
RTVSPost2010Prop30
280
     1
102
RTVSPost2010PropOp30
 70
     1
102
RTVSPost2010Prop31
280
     0
102
RTVSPost2010PropOp31
 70
     1
102
RTVSPost2010Prop32
280
     0
102
RTVSPost2010PropOp32
 70
     1
102
RTVSPost2010Prop33
280
     0
102
RTVSPost2010PropOp33
 70
     1
102
RTVSPost2010Prop34
280
     0
102
RTVSPost2010PropOp34
 70
     1
102
RTVSPost2010Prop35
280
     0
102
RTVSPost2010PropOp35
 70
     1
102
RTVSPost2010Prop36
280
     0
102
RTVSPost2010PropOp36
 70
     1
102
RTVSPost2010Prop37
 90
       50
102
RTVSPost2010PropOp37
 70
     1
102
RTVSPost2010Prop38
140
0.0
102
RTVSPost2010PropOp38
 70
     1
102
RTVSPost2010Prop39
140
1.0
102
RTVSPost2010PropOp39
 70
     1
102
RTVSPost2010Prop40
 90
        0
102
RTVSPost2010PropOp40
 70
     1
102
RTVSPost2010Prop41ColorIndex
 90
       18
102
RTVSPost2010Prop41ColorRGB
 90
        0
102
RTVSPost2010PropOp41
 70
     1
102
RTVSPost2010Prop42
 90
       50
102
RTVSPost2010PropOp42
 70
     1
102
RTVSPost2010Prop43
 90
        3
102
RTVSPost2010PropOp43
 70
     1
102
RTVSPost2010Prop44ColorIndex
 90
        5
102
RTVSPost2010Prop44ColorRGB
 90
      255
102
RTVSPost2010PropOp44
 70
     1
102
RTVSPost2010Prop45
280
     0
102
RTVSPost2010PropOp45
 70
     1
102
RTVSPost2010Prop46
 90
       50
102
RTVSPost2010PropOp46
 70
     1
102
RTVSPost2010Prop47
 90
       50
102
RTVSPost2010PropOp47
 70
     1
102
RTVSPost2010Prop48
 90
       50
102
RTVSPost2010PropOp48
 70
     1
102
RTVSPost2010Prop49
280
     0
102
RTVSPost2010PropOp49
 70
     1
102
RTVSPost2010Prop50
 90
       50
102
RTVSPost2010PropOp50
 70
     1
102
RTVSPost2010Prop51ColorIndex
 90
      256
102
RTVSPost2010Prop51ColorRGB
 90
-16777216
102
RTVSPost2010PropOp51
 70
     0
102
RTVSPost2010Prop52
140
1.0
102
RTVSPost2010PropOp52
 70
     0
102
RTVSPost2010Prop53
 90
        2
102
RTVSPost2010PropOp53
 70
     1
102
RTVSPost2010Prop54
  1
strokes_ogs.tif
102
RTVSPost2010PropOp54
 70
     1
102
RTVSPost2010Prop55
280
     0
102
RTVSPost2010PropOp55
 70
     1
102
RTVSPost2010Prop56
140
1.0
102
RTVSPost2010PropOp56
 70
     1
102
RTVSPost2010Prop57
140
1.0
102
RTVSPost2010PropOp57
 70
     1
102
RTVSPropertyOp0
 70
     1
102
RTVSPropertyOp1
 70
     1
102
RTVSPropertyOp2
 70
     1
102
RTVSPropertyOp3
 70
     1
102
RTVSPropertyOp4
 70
     1
102
RTVSPropertyOp5
 70
     1
102
RTVSPropertyOp6
 70
     1
102
RTVSPropertyOp7
 70
     1
102
RTVSPropertyOp8
 70
     1
102
RTVSPropertyOp9
 70
     1
102
RTVSPropertyOp10
 70
     1
102
RTVSPropertyOp11
 70
     1
102
RTVSPropertyOp12
 70
     1
102
RTVSPropertyOp13
 70
     1
102
RTVSPropertyOp14
 70
     1
102
RTVSPropertyOp15
 70
     1
102
RTVSPropertyOp16
 70
     1
102
RTVSPropertyOp17
 70
     1
102
RTVSPropertyOp18
 70
     1
102
RTVSPropertyOp19
 70
     1
102
RTVSPropertyOp20
 70
     1
102
RTVSPropertyOp21
 70
     1
102
RTVSPropertyOp22
 70
     1
102
RTVSPropertyOp23
 70
     1
102
RTVSPropertyOp24
 70
     1
102
RTVSPropertyOp25
 70
     1
102
RTVSPropertyOp26
 70
     1
102
RTVSPropertyOp27
 70
     1
102
RTVSPropertyOp28
 70
     1
102
RTVSPropertyOp29
 70
     1
102
RTVSPropertyOp30
 70
     1
102
RTVSPropertyOp31
 70
     1
102
RTVSPropertyOp32
 70
     1
102
RTVSPropertyOp33
 70
     1
102
RTVSPropertyOp34
 70
     1
102
RTVSPropertyOp35
 70
     1
102
RTVSPropertyOp36
 70
     1
102
RTVSPropertyOp37
 70
     1
102
RTVSPropertyOp38
 70
     1
102
RTVSPropertyOp39
 70
     1
102
RTVSPropertyOp40
 70
     1
102
RTVSPropertyOp41
 70
     1
102
RTVSPropertyOp42
 70
     1
102
RTVSPropertyOp43
 70
     1
102
RTVSPropertyOp44
 70
     1
102
RTVSPropertyOp45
 70
     1
102
RTVSPropertyOp46
 70
     1
102
RTVSPropertyOp47
 70
     1
102
RTVSPropertyOp48
 70
     1
102
RTVSPropertyOp49
 70
     1
102
RTVSPropertyOp50
 70
     1
102
RTVSPropertyOp51
 70
     0
102
RTVSPropertyOp52
 70
     0
102
RTVSPropertyOp53
 70
     1
102
RTVSPropertyOp54
 70
     1
102
RTVSPropertyOp55
 70
     1
102
RTVSPropertyOp56
 70
     1
102
RTVSPropertyOp57
 70
     1
102
RTVSPropertyOp58
 70
     1
102
RTVSPropertyOp59
 70
     1
102
RTVSPropertyOp60
 70
     1
102
RTVSPropertyOp61
 70
     1
102
RTVSPropertyOp62
 70
     1
  0
XRECORD
  5
BF21
102
{ACAD_REACTORS
330
BF20
102
}
330
BF20
100
AcDbXrecord
280
     1
102
RTVSPost2010Prop28
280
     0
102
RTVSPost2010PropOp28
 70
     1
102
RTVSPost2010Prop29
280
     1
102
RTVSPost2010PropOp29
 70
     1
102
RTVSPost2010Prop30
280
     1
102
RTVSPost2010PropOp30
 70
     1
102
RTVSPost2010Prop31
280
     0
102
RTVSPost2010PropOp31
 70
     1
102
RTVSPost2010Prop32
280
     0
102
RTVSPost2010PropOp32
 70
     1
102
RTVSPost2010Prop33
280
     0
102
RTVSPost2010PropOp33
 70
     1
102
RTVSPost2010Prop34
280
     0
102
RTVSPost2010PropOp34
 70
     1
102
RTVSPost2010Prop35
280
     0
102
RTVSPost2010PropOp35
 70
     1
102
RTVSPost2010Prop36
280
     0
102
RTVSPost2010PropOp36
 70
     1
102
RTVSPost2010Prop37
 90
       50
102
RTVSPost2010PropOp37
 70
     1
102
RTVSPost2010Prop38
140
0.0
102
RTVSPost2010PropOp38
 70
     1
102
RTVSPost2010Prop39
140
1.0
102
RTVSPost2010PropOp39
 70
     1
102
RTVSPost2010Prop40
 90
        0
102
RTVSPost2010PropOp40
 70
     1
102
RTVSPost2010Prop41ColorIndex
 90
       18
102
RTVSPost2010Prop41ColorRGB
 90
        0
102
RTVSPost2010PropOp41
 70
     1
102
RTVSPost2010Prop42
 90
       50
102
RTVSPost2010PropOp42
 70
     1
102
RTVSPost2010Prop43
 90
        3
102
RTVSPost2010PropOp43
 70
     1
102
RTVSPost2010Prop44ColorIndex
 90
        5
102
RTVSPost2010Prop44ColorRGB
 90
      255
102
RTVSPost2010PropOp44
 70
     1
102
RTVSPost2010Prop45
280
     0
102
RTVSPost2010PropOp45
 70
     1
102
RTVSPost2010Prop46
 90
       50
102
RTVSPost2010PropOp46
 70
     1
102
RTVSPost2010Prop47
 90
       50
102
RTVSPost2010PropOp47
 70
     1
102
RTVSPost2010Prop48
 90
       50
102
RTVSPost2010PropOp48
 70
     1
102
RTVSPost2010Prop49
280
     0
102
RTVSPost2010PropOp49
 70
     1
102
RTVSPost2010Prop50
 90
       50
102
RTVSPost2010PropOp50
 70
     1
102
RTVSPost2010Prop51ColorIndex
 90
      256
102
RTVSPost2010Prop51ColorRGB
 90
-16777216
102
RTVSPost2010PropOp51
 70
     0
102
RTVSPost2010Prop52
140
1.0
102
RTVSPost2010PropOp52
 70
     0
102
RTVSPost2010Prop53
 90
        2
102
RTVSPost2010PropOp53
 70
     1
102
RTVSPost2010Prop54
  1
strokes_ogs.tif
102
RTVSPost2010PropOp54
 70
     1
102
RTVSPost2010Prop55
280
     0
102
RTVSPost2010PropOp55
 70
     1
102
RTVSPost2010Prop56
140
1.0
102
RTVSPost2010PropOp56
 70
     1
102
RTVSPost2010Prop57
140
1.0
102
RTVSPost2010PropOp57
 70
     1
102
RTVSPropertyOp0
 70
     1
102
RTVSPropertyOp1
 70
     1
102
RTVSPropertyOp2
 70
     1
102
RTVSPropertyOp3
 70
     1
102
RTVSPropertyOp4
 70
     1
102
RTVSPropertyOp5
 70
     1
102
RTVSPropertyOp6
 70
     1
102
RTVSPropertyOp7
 70
     1
102
RTVSPropertyOp8
 70
     1
102
RTVSPropertyOp9
 70
     1
102
RTVSPropertyOp10
 70
     1
102
RTVSPropertyOp11
 70
     1
102
RTVSPropertyOp12
 70
     1
102
RTVSPropertyOp13
 70
     1
102
RTVSPropertyOp14
 70
     1
102
RTVSPropertyOp15
 70
     1
102
RTVSPropertyOp16
 70
     1
102
RTVSPropertyOp17
 70
     1
102
RTVSPropertyOp18
 70
     1
102
RTVSPropertyOp19
 70
     1
102
RTVSPropertyOp20
 70
     1
102
RTVSPropertyOp21
 70
     1
102
RTVSPropertyOp22
 70
     1
102
RTVSPropertyOp23
 70
     1
102
RTVSPropertyOp24
 70
     1
102
RTVSPropertyOp25
 70
     1
102
RTVSPropertyOp26
 70
     1
102
RTVSPropertyOp27
 70
     1
102
RTVSPropertyOp28
 70
     1
102
RTVSPropertyOp29
 70
     1
102
RTVSPropertyOp30
 70
     1
102
RTVSPropertyOp31
 70
     1
102
RTVSPropertyOp32
 70
     1
102
RTVSPropertyOp33
 70
     1
102
RTVSPropertyOp34
 70
     1
102
RTVSPropertyOp35
 70
     1
102
RTVSPropertyOp36
 70
     1
102
RTVSPropertyOp37
 70
     1
102
RTVSPropertyOp38
 70
     1
102
RTVSPropertyOp39
 70
     1
102
RTVSPropertyOp40
 70
     1
102
RTVSPropertyOp41
 70
     1
102
RTVSPropertyOp42
 70
     1
102
RTVSPropertyOp43
 70
     1
102
RTVSPropertyOp44
 70
     1
102
RTVSPropertyOp45
 70
     1
102
RTVSPropertyOp46
 70
     1
102
RTVSPropertyOp47
 70
     1
102
RTVSPropertyOp48
 70
     1
102
RTVSPropertyOp49
 70
     1
102
RTVSPropertyOp50
 70
     1
102
RTVSPropertyOp51
 70
     0
102
RTVSPropertyOp52
 70
     0
102
RTVSPropertyOp53
 70
     1
102
RTVSPropertyOp54
 70
     1
102
RTVSPropertyOp55
 70
     1
102
RTVSPropertyOp56
 70
     1
102
RTVSPropertyOp57
 70
     1
102
RTVSPropertyOp58
 70
     1
102
RTVSPropertyOp59
 70
     1
102
RTVSPropertyOp60
 70
     1
102
RTVSPropertyOp61
 70
     1
102
RTVSPropertyOp62
 70
     1
  0
XRECORD
  5
BF23
102
{ACAD_REACTORS
330
BF22
102
}
330
BF22
100
AcDbXrecord
280
     1
102
RTVSPost2010Prop28
280
     0
102
RTVSPost2010PropOp28
 70
     1
102
RTVSPost2010Prop29
280
     1
102
RTVSPost2010PropOp29
 70
     1
102
RTVSPost2010Prop30
280
     1
102
RTVSPost2010PropOp30
 70
     1
102
RTVSPost2010Prop31
280
     0
102
RTVSPost2010PropOp31
 70
     1
102
RTVSPost2010Prop32
280
     0
102
RTVSPost2010PropOp32
 70
     1
102
RTVSPost2010Prop33
280
     0
102
RTVSPost2010PropOp33
 70
     1
102
RTVSPost2010Prop34
280
     0
102
RTVSPost2010PropOp34
 70
     1
102
RTVSPost2010Prop35
280
     0
102
RTVSPost2010PropOp35
 70
     1
102
RTVSPost2010Prop36
280
     0
102
RTVSPost2010PropOp36
 70
     1
102
RTVSPost2010Prop37
 90
       50
102
RTVSPost2010PropOp37
 70
     1
102
RTVSPost2010Prop38
140
0.0
102
RTVSPost2010PropOp38
 70
     1
102
RTVSPost2010Prop39
140
1.0
102
RTVSPost2010PropOp39
 70
     1
102
RTVSPost2010Prop40
 90
        0
102
RTVSPost2010PropOp40
 70
     1
102
RTVSPost2010Prop41ColorIndex
 90
       18
102
RTVSPost2010Prop41ColorRGB
 90
        0
102
RTVSPost2010PropOp41
 70
     1
102
RTVSPost2010Prop42
 90
       50
102
RTVSPost2010PropOp42
 70
     1
102
RTVSPost2010Prop43
 90
        3
102
RTVSPost2010PropOp43
 70
     1
102
RTVSPost2010Prop44ColorIndex
 90
        5
102
RTVSPost2010Prop44ColorRGB
 90
      255
102
RTVSPost2010PropOp44
 70
     1
102
RTVSPost2010Prop45
280
     0
102
RTVSPost2010PropOp45
 70
     1
102
RTVSPost2010Prop46
 90
       50
102
RTVSPost2010PropOp46
 70
     1
102
RTVSPost2010Prop47
 90
       50
102
RTVSPost2010PropOp47
 70
     1
102
RTVSPost2010Prop48
 90
       50
102
RTVSPost2010PropOp48
 70
     1
102
RTVSPost2010Prop49
280
     0
102
RTVSPost2010PropOp49
 70
     1
102
RTVSPost2010Prop50
 90
       50
102
RTVSPost2010PropOp50
 70
     1
102
RTVSPost2010Prop51ColorIndex
 90
      256
102
RTVSPost2010Prop51ColorRGB
 90
-16777216
102
RTVSPost2010PropOp51
 70
     0
102
RTVSPost2010Prop52
140
1.0
102
RTVSPost2010PropOp52
 70
     0
102
RTVSPost2010Prop53
 90
        2
102
RTVSPost2010PropOp53
 70
     1
102
RTVSPost2010Prop54
  1
strokes_ogs.tif
102
RTVSPost2010PropOp54
 70
     1
102
RTVSPost2010Prop55
280
     0
102
RTVSPost2010PropOp55
 70
     1
102
RTVSPost2010Prop56
140
1.0
102
RTVSPost2010PropOp56
 70
     1
102
RTVSPost2010Prop57
140
1.0
102
RTVSPost2010PropOp57
 70
     1
102
RTVSPropertyOp0
 70
     1
102
RTVSPropertyOp1
 70
     1
102
RTVSPropertyOp2
 70
     1
102
RTVSPropertyOp3
 70
     1
102
RTVSPropertyOp4
 70
     1
102
RTVSPropertyOp5
 70
     1
102
RTVSPropertyOp6
 70
     1
102
RTVSPropertyOp7
 70
     1
102
RTVSPropertyOp8
 70
     1
102
RTVSPropertyOp9
 70
     1
102
RTVSPropertyOp10
 70
     1
102
RTVSPropertyOp11
 70
     1
102
RTVSPropertyOp12
 70
     1
102
RTVSPropertyOp13
 70
     1
102
RTVSPropertyOp14
 70
     1
102
RTVSPropertyOp15
 70
     1
102
RTVSPropertyOp16
 70
     1
102
RTVSPropertyOp17
 70
     1
102
RTVSPropertyOp18
 70
     1
102
RTVSPropertyOp19
 70
     1
102
RTVSPropertyOp20
 70
     1
102
RTVSPropertyOp21
 70
     1
102
RTVSPropertyOp22
 70
     1
102
RTVSPropertyOp23
 70
     1
102
RTVSPropertyOp24
 70
     1
102
RTVSPropertyOp25
 70
     1
102
RTVSPropertyOp26
 70
     1
102
RTVSPropertyOp27
 70
     1
102
RTVSPropertyOp28
 70
     1
102
RTVSPropertyOp29
 70
     1
102
RTVSPropertyOp30
 70
     1
102
RTVSPropertyOp31
 70
     1
102
RTVSPropertyOp32
 70
     1
102
RTVSPropertyOp33
 70
     1
102
RTVSPropertyOp34
 70
     1
102
RTVSPropertyOp35
 70
     1
102
RTVSPropertyOp36
 70
     1
102
RTVSPropertyOp37
 70
     1
102
RTVSPropertyOp38
 70
     1
102
RTVSPropertyOp39
 70
     1
102
RTVSPropertyOp40
 70
     1
102
RTVSPropertyOp41
 70
     1
102
RTVSPropertyOp42
 70
     1
102
RTVSPropertyOp43
 70
     1
102
RTVSPropertyOp44
 70
     1
102
RTVSPropertyOp45
 70
     1
102
RTVSPropertyOp46
 70
     1
102
RTVSPropertyOp47
 70
     1
102
RTVSPropertyOp48
 70
     1
102
RTVSPropertyOp49
 70
     1
102
RTVSPropertyOp50
 70
     1
102
RTVSPropertyOp51
 70
     0
102
RTVSPropertyOp52
 70
     0
102
RTVSPropertyOp53
 70
     1
102
RTVSPropertyOp54
 70
     1
102
RTVSPropertyOp55
 70
     1
102
RTVSPropertyOp56
 70
     1
102
RTVSPropertyOp57
 70
     1
102
RTVSPropertyOp58
 70
     1
102
RTVSPropertyOp59
 70
     1
102
RTVSPropertyOp60
 70
     1
102
RTVSPropertyOp61
 70
     1
102
RTVSPropertyOp62
 70
     1
  0
XRECORD
  5
BF2B
102
{ACAD_REACTORS
330
BF2A
102
}
330
BF2A
100
AcDbXrecord
280
     1
102
RTVSPost2010Prop28
280
     0
102
RTVSPost2010PropOp28
 70
     1
102
RTVSPost2010Prop29
280
     1
102
RTVSPost2010PropOp29
 70
     1
102
RTVSPost2010Prop30
280
     1
102
RTVSPost2010PropOp30
 70
     1
102
RTVSPost2010Prop31
280
     0
102
RTVSPost2010PropOp31
 70
     1
102
RTVSPost2010Prop32
280
     0
102
RTVSPost2010PropOp32
 70
     1
102
RTVSPost2010Prop33
280
     0
102
RTVSPost2010PropOp33
 70
     1
102
RTVSPost2010Prop34
280
     0
102
RTVSPost2010PropOp34
 70
     1
102
RTVSPost2010Prop35
280
     0
102
RTVSPost2010PropOp35
 70
     1
102
RTVSPost2010Prop36
280
     0
102
RTVSPost2010PropOp36
 70
     1
102
RTVSPost2010Prop37
 90
       50
102
RTVSPost2010PropOp37
 70
     1
102
RTVSPost2010Prop38
140
0.0
102
RTVSPost2010PropOp38
 70
     1
102
RTVSPost2010Prop39
140
1.0
102
RTVSPost2010PropOp39
 70
     1
102
RTVSPost2010Prop40
 90
        0
102
RTVSPost2010PropOp40
 70
     1
102
RTVSPost2010Prop41ColorIndex
 90
       18
102
RTVSPost2010Prop41ColorRGB
 90
        0
102
RTVSPost2010PropOp41
 70
     1
102
RTVSPost2010Prop42
 90
       50
102
RTVSPost2010PropOp42
 70
     1
102
RTVSPost2010Prop43
 90
        3
102
RTVSPost2010PropOp43
 70
     1
102
RTVSPost2010Prop44ColorIndex
 90
        5
102
RTVSPost2010Prop44ColorRGB
 90
      255
102
RTVSPost2010PropOp44
 70
     1
102
RTVSPost2010Prop45
280
     0
102
RTVSPost2010PropOp45
 70
     1
102
RTVSPost2010Prop46
 90
       50
102
RTVSPost2010PropOp46
 70
     1
102
RTVSPost2010Prop47
 90
       50
102
RTVSPost2010PropOp47
 70
     1
102
RTVSPost2010Prop48
 90
       50
102
RTVSPost2010PropOp48
 70
     1
102
RTVSPost2010Prop49
280
     0
102
RTVSPost2010PropOp49
 70
     1
102
RTVSPost2010Prop50
 90
       50
102
RTVSPost2010PropOp50
 70
     1
102
RTVSPost2010Prop51ColorIndex
 90
      256
102
RTVSPost2010Prop51ColorRGB
 90
-16777216
102
RTVSPost2010PropOp51
 70
     0
102
RTVSPost2010Prop52
140
1.0
102
RTVSPost2010PropOp52
 70
     0
102
RTVSPost2010Prop53
 90
        2
102
RTVSPost2010PropOp53
 70
     1
102
RTVSPost2010Prop54
  1
strokes_ogs.tif
102
RTVSPost2010PropOp54
 70
     1
102
RTVSPost2010Prop55
280
     0
102
RTVSPost2010PropOp55
 70
     1
102
RTVSPost2010Prop56
140
1.0
102
RTVSPost2010PropOp56
 70
     1
102
RTVSPost2010Prop57
140
1.0
102
RTVSPost2010PropOp57
 70
     1
102
RTVSPropertyOp0
 70
     1
102
RTVSPropertyOp1
 70
     1
102
RTVSPropertyOp2
 70
     1
102
RTVSPropertyOp3
 70
     1
102
RTVSPropertyOp4
 70
     1
102
RTVSPropertyOp5
 70
     1
102
RTVSPropertyOp6
 70
     1
102
RTVSPropertyOp7
 70
     1
102
RTVSPropertyOp8
 70
     1
102
RTVSPropertyOp9
 70
     1
102
RTVSPropertyOp10
 70
     1
102
RTVSPropertyOp11
 70
     1
102
RTVSPropertyOp12
 70
     1
102
RTVSPropertyOp13
 70
     1
102
RTVSPropertyOp14
 70
     1
102
RTVSPropertyOp15
 70
     1
102
RTVSPropertyOp16
 70
     1
102
RTVSPropertyOp17
 70
     1
102
RTVSPropertyOp18
 70
     1
102
RTVSPropertyOp19
 70
     1
102
RTVSPropertyOp20
 70
     1
102
RTVSPropertyOp21
 70
     1
102
RTVSPropertyOp22
 70
     1
102
RTVSPropertyOp23
 70
     1
102
RTVSPropertyOp24
 70
     1
102
RTVSPropertyOp25
 70
     1
102
RTVSPropertyOp26
 70
     1
102
RTVSPropertyOp27
 70
     1
102
RTVSPropertyOp28
 70
     1
102
RTVSPropertyOp29
 70
     1
102
RTVSPropertyOp30
 70
     1
102
RTVSPropertyOp31
 70
     1
102
RTVSPropertyOp32
 70
     1
102
RTVSPropertyOp33
 70
     1
102
RTVSPropertyOp34
 70
     1
102
RTVSPropertyOp35
 70
     1
102
RTVSPropertyOp36
 70
     1
102
RTVSPropertyOp37
 70
     1
102
RTVSPropertyOp38
 70
     1
102
RTVSPropertyOp39
 70
     1
102
RTVSPropertyOp40
 70
     1
102
RTVSPropertyOp41
 70
     1
102
RTVSPropertyOp42
 70
     1
102
RTVSPropertyOp43
 70
     1
102
RTVSPropertyOp44
 70
     1
102
RTVSPropertyOp45
 70
     1
102
RTVSPropertyOp46
 70
     1
102
RTVSPropertyOp47
 70
     1
102
RTVSPropertyOp48
 70
     1
102
RTVSPropertyOp49
 70
     1
102
RTVSPropertyOp50
 70
     1
102
RTVSPropertyOp51
 70
     0
102
RTVSPropertyOp52
 70
     0
102
RTVSPropertyOp53
 70
     1
102
RTVSPropertyOp54
 70
     1
102
RTVSPropertyOp55
 70
     1
102
RTVSPropertyOp56
 70
     1
102
RTVSPropertyOp57
 70
     1
102
RTVSPropertyOp58
 70
     1
102
RTVSPropertyOp59
 70
     1
102
RTVSPropertyOp60
 70
     1
102
RTVSPropertyOp61
 70
     1
102
RTVSPropertyOp62
 70
     1
  0
XRECORD
  5
BF3F
102
{ACAD_REACTORS
330
BF3E
102
}
330
BF3E
100
AcDbXrecord
280
     1
102
RTVSPost2010Prop28
280
     0
102
RTVSPost2010PropOp28
 70
     1
102
RTVSPost2010Prop29
280
     1
102
RTVSPost2010PropOp29
 70
     1
102
RTVSPost2010Prop30
280
     1
102
RTVSPost2010PropOp30
 70
     1
102
RTVSPost2010Prop31
280
     0
102
RTVSPost2010PropOp31
 70
     1
102
RTVSPost2010Prop32
280
     0
102
RTVSPost2010PropOp32
 70
     1
102
RTVSPost2010Prop33
280
     0
102
RTVSPost2010PropOp33
 70
     1
102
RTVSPost2010Prop34
280
     0
102
RTVSPost2010PropOp34
 70
     1
102
RTVSPost2010Prop35
280
     0
102
RTVSPost2010PropOp35
 70
     1
102
RTVSPost2010Prop36
280
     0
102
RTVSPost2010PropOp36
 70
     1
102
RTVSPost2010Prop37
 90
       50
102
RTVSPost2010PropOp37
 70
     1
102
RTVSPost2010Prop38
140
0.0
102
RTVSPost2010PropOp38
 70
     1
102
RTVSPost2010Prop39
140
1.0
102
RTVSPost2010PropOp39
 70
     1
102
RTVSPost2010Prop40
 90
        0
102
RTVSPost2010PropOp40
 70
     1
102
RTVSPost2010Prop41ColorIndex
 90
       18
102
RTVSPost2010Prop41ColorRGB
 90
        0
102
RTVSPost2010PropOp41
 70
     1
102
RTVSPost2010Prop42
 90
       50
102
RTVSPost2010PropOp42
 70
     1
102
RTVSPost2010Prop43
 90
        3
102
RTVSPost2010PropOp43
 70
     1
102
RTVSPost2010Prop44ColorIndex
 90
        5
102
RTVSPost2010Prop44ColorRGB
 90
      255
102
RTVSPost2010PropOp44
 70
     1
102
RTVSPost2010Prop45
280
     0
102
RTVSPost2010PropOp45
 70
     1
102
RTVSPost2010Prop46
 90
       50
102
RTVSPost2010PropOp46
 70
     1
102
RTVSPost2010Prop47
 90
       50
102
RTVSPost2010PropOp47
 70
     1
102
RTVSPost2010Prop48
 90
       50
102
RTVSPost2010PropOp48
 70
     1
102
RTVSPost2010Prop49
280
     0
102
RTVSPost2010PropOp49
 70
     1
102
RTVSPost2010Prop50
 90
       50
102
RTVSPost2010PropOp50
 70
     1
102
RTVSPost2010Prop51ColorIndex
 90
      256
102
RTVSPost2010Prop51ColorRGB
 90
-16777216
102
RTVSPost2010PropOp51
 70
     0
102
RTVSPost2010Prop52
140
1.0
102
RTVSPost2010PropOp52
 70
     0
102
RTVSPost2010Prop53
 90
        2
102
RTVSPost2010PropOp53
 70
     1
102
RTVSPost2010Prop54
  1
strokes_ogs.tif
102
RTVSPost2010PropOp54
 70
     1
102
RTVSPost2010Prop55
280
     0
102
RTVSPost2010PropOp55
 70
     1
102
RTVSPost2010Prop56
140
1.0
102
RTVSPost2010PropOp56
 70
     1
102
RTVSPost2010Prop57
140
1.0
102
RTVSPost2010PropOp57
 70
     1
102
RTVSPropertyOp0
 70
     0
102
RTVSPropertyOp1
 70
     0
102
RTVSPropertyOp2
 70
     0
102
RTVSPropertyOp3
 70
     0
102
RTVSPropertyOp4
 70
     0
102
RTVSPropertyOp5
 70
     0
102
RTVSPropertyOp6
 70
     0
102
RTVSPropertyOp7
 70
     0
102
RTVSPropertyOp8
 70
     0
102
RTVSPropertyOp9
 70
     0
102
RTVSPropertyOp10
 70
     0
102
RTVSPropertyOp11
 70
     0
102
RTVSPropertyOp12
 70
     0
102
RTVSPropertyOp13
 70
     0
102
RTVSPropertyOp14
 70
     2
102
RTVSPropertyOp15
 70
     0
102
RTVSPropertyOp16
 70
     0
102
RTVSPropertyOp17
 70
     0
102
RTVSPropertyOp18
 70
     0
102
RTVSPropertyOp19
 70
     0
102
RTVSPropertyOp20
 70
     0
102
RTVSPropertyOp21
 70
     0
102
RTVSPropertyOp22
 70
     0
102
RTVSPropertyOp23
 70
     0
102
RTVSPropertyOp24
 70
     0
102
RTVSPropertyOp25
 70
     0
102
RTVSPropertyOp26
 70
     0
102
RTVSPropertyOp27
 70
     0
102
RTVSPropertyOp28
 70
     1
102
RTVSPropertyOp29
 70
     1
102
RTVSPropertyOp30
 70
     1
102
RTVSPropertyOp31
 70
     1
102
RTVSPropertyOp32
 70
     1
102
RTVSPropertyOp33
 70
     1
102
RTVSPropertyOp34
 70
     1
102
RTVSPropertyOp35
 70
     1
102
RTVSPropertyOp36
 70
     1
102
RTVSPropertyOp37
 70
     1
102
RTVSPropertyOp38
 70
     1
102
RTVSPropertyOp39
 70
     1
102
RTVSPropertyOp40
 70
     1
102
RTVSPropertyOp41
 70
     1
102
RTVSPropertyOp42
 70
     1
102
RTVSPropertyOp43
 70
     1
102
RTVSPropertyOp44
 70
     1
102
RTVSPropertyOp45
 70
     1
102
RTVSPropertyOp46
 70
     1
102
RTVSPropertyOp47
 70
     1
102
RTVSPropertyOp48
 70
     1
102
RTVSPropertyOp49
 70
     1
102
RTVSPropertyOp50
 70
     1
102
RTVSPropertyOp51
 70
     0
102
RTVSPropertyOp52
 70
     0
102
RTVSPropertyOp53
 70
     1
102
RTVSPropertyOp54
 70
     1
102
RTVSPropertyOp55
 70
     1
102
RTVSPropertyOp56
 70
     1
102
RTVSPropertyOp57
 70
     1
102
RTVSPropertyOp58
 70
     1
102
RTVSPropertyOp59
 70
     1
102
RTVSPropertyOp60
 70
     1
102
RTVSPropertyOp61
 70
     1
102
RTVSPropertyOp62
 70
     1
  0
XRECORD
  5
BF37
102
{ACAD_REACTORS
330
BF36
102
}
330
BF36
100
AcDbXrecord
280
     1
102
RTVSPost2010Prop28
280
     0
102
RTVSPost2010PropOp28
 70
     1
102
RTVSPost2010Prop29
280
     1
102
RTVSPost2010PropOp29
 70
     1
102
RTVSPost2010Prop30
280
     1
102
RTVSPost2010PropOp30
 70
     1
102
RTVSPost2010Prop31
280
     0
102
RTVSPost2010PropOp31
 70
     1
102
RTVSPost2010Prop32
280
     0
102
RTVSPost2010PropOp32
 70
     1
102
RTVSPost2010Prop33
280
     0
102
RTVSPost2010PropOp33
 70
     1
102
RTVSPost2010Prop34
280
     0
102
RTVSPost2010PropOp34
 70
     1
102
RTVSPost2010Prop35
280
     0
102
RTVSPost2010PropOp35
 70
     1
102
RTVSPost2010Prop36
280
     0
102
RTVSPost2010PropOp36
 70
     1
102
RTVSPost2010Prop37
 90
       50
102
RTVSPost2010PropOp37
 70
     1
102
RTVSPost2010Prop38
140
0.0
102
RTVSPost2010PropOp38
 70
     1
102
RTVSPost2010Prop39
140
1.0
102
RTVSPost2010PropOp39
 70
     1
102
RTVSPost2010Prop40
 90
        0
102
RTVSPost2010PropOp40
 70
     1
102
RTVSPost2010Prop41ColorIndex
 90
       18
102
RTVSPost2010Prop41ColorRGB
 90
        0
102
RTVSPost2010PropOp41
 70
     1
102
RTVSPost2010Prop42
 90
       50
102
RTVSPost2010PropOp42
 70
     1
102
RTVSPost2010Prop43
 90
        3
102
RTVSPost2010PropOp43
 70
     1
102
RTVSPost2010Prop44ColorIndex
 90
        5
102
RTVSPost2010Prop44ColorRGB
 90
      255
102
RTVSPost2010PropOp44
 70
     1
102
RTVSPost2010Prop45
280
     0
102
RTVSPost2010PropOp45
 70
     1
102
RTVSPost2010Prop46
 90
       50
102
RTVSPost2010PropOp46
 70
     1
102
RTVSPost2010Prop47
 90
       50
102
RTVSPost2010PropOp47
 70
     1
102
RTVSPost2010Prop48
 90
       50
102
RTVSPost2010PropOp48
 70
     1
102
RTVSPost2010Prop49
280
     0
102
RTVSPost2010PropOp49
 70
     1
102
RTVSPost2010Prop50
 90
       50
102
RTVSPost2010PropOp50
 70
     1
102
RTVSPost2010Prop51ColorIndex
 90
      256
102
RTVSPost2010Prop51ColorRGB
 90
-16777216
102
RTVSPost2010PropOp51
 70
     0
102
RTVSPost2010Prop52
140
1.0
102
RTVSPost2010PropOp52
 70
     0
102
RTVSPost2010Prop53
 90
        2
102
RTVSPost2010PropOp53
 70
     1
102
RTVSPost2010Prop54
  1
strokes_ogs.tif
102
RTVSPost2010PropOp54
 70
     1
102
RTVSPost2010Prop55
280
     0
102
RTVSPost2010PropOp55
 70
     1
102
RTVSPost2010Prop56
140
1.0
102
RTVSPost2010PropOp56
 70
     1
102
RTVSPost2010Prop57
140
1.0
102
RTVSPost2010PropOp57
 70
     1
102
RTVSPropertyOp0
 70
     1
102
RTVSPropertyOp1
 70
     1
102
RTVSPropertyOp2
 70
     1
102
RTVSPropertyOp3
 70
     1
102
RTVSPropertyOp4
 70
     1
102
RTVSPropertyOp5
 70
     1
102
RTVSPropertyOp6
 70
     1
102
RTVSPropertyOp7
 70
     1
102
RTVSPropertyOp8
 70
     1
102
RTVSPropertyOp9
 70
     1
102
RTVSPropertyOp10
 70
     1
102
RTVSPropertyOp11
 70
     1
102
RTVSPropertyOp12
 70
     1
102
RTVSPropertyOp13
 70
     1
102
RTVSPropertyOp14
 70
     1
102
RTVSPropertyOp15
 70
     1
102
RTVSPropertyOp16
 70
     1
102
RTVSPropertyOp17
 70
     1
102
RTVSPropertyOp18
 70
     1
102
RTVSPropertyOp19
 70
     1
102
RTVSPropertyOp20
 70
     1
102
RTVSPropertyOp21
 70
     1
102
RTVSPropertyOp22
 70
     1
102
RTVSPropertyOp23
 70
     1
102
RTVSPropertyOp24
 70
     1
102
RTVSPropertyOp25
 70
     1
102
RTVSPropertyOp26
 70
     1
102
RTVSPropertyOp27
 70
     1
102
RTVSPropertyOp28
 70
     1
102
RTVSPropertyOp29
 70
     1
102
RTVSPropertyOp30
 70
     1
102
RTVSPropertyOp31
 70
     1
102
RTVSPropertyOp32
 70
     1
102
RTVSPropertyOp33
 70
     1
102
RTVSPropertyOp34
 70
     1
102
RTVSPropertyOp35
 70
     1
102
RTVSPropertyOp36
 70
     1
102
RTVSPropertyOp37
 70
     1
102
RTVSPropertyOp38
 70
     1
102
RTVSPropertyOp39
 70
     1
102
RTVSPropertyOp40
 70
     1
102
RTVSPropertyOp41
 70
     1
102
RTVSPropertyOp42
 70
     1
102
RTVSPropertyOp43
 70
     1
102
RTVSPropertyOp44
 70
     1
102
RTVSPropertyOp45
 70
     1
102
RTVSPropertyOp46
 70
     1
102
RTVSPropertyOp47
 70
     1
102
RTVSPropertyOp48
 70
     1
102
RTVSPropertyOp49
 70
     1
102
RTVSPropertyOp50
 70
     1
102
RTVSPropertyOp51
 70
     0
102
RTVSPropertyOp52
 70
     0
102
RTVSPropertyOp53
 70
     1
102
RTVSPropertyOp54
 70
     1
102
RTVSPropertyOp55
 70
     1
102
RTVSPropertyOp56
 70
     1
102
RTVSPropertyOp57
 70
     1
102
RTVSPropertyOp58
 70
     1
102
RTVSPropertyOp59
 70
     1
102
RTVSPropertyOp60
 70
     1
102
RTVSPropertyOp61
 70
     1
102
RTVSPropertyOp62
 70
     1
  0
XRECORD
  5
BF41
102
{ACAD_REACTORS
330
BF40
102
}
330
BF40
100
AcDbXrecord
280
     1
102
RTVSPost2010Prop28
280
     0
102
RTVSPost2010PropOp28
 70
     1
102
RTVSPost2010Prop29
280
     1
102
RTVSPost2010PropOp29
 70
     1
102
RTVSPost2010Prop30
280
     1
102
RTVSPost2010PropOp30
 70
     1
102
RTVSPost2010Prop31
280
     0
102
RTVSPost2010PropOp31
 70
     1
102
RTVSPost2010Prop32
280
     0
102
RTVSPost2010PropOp32
 70
     1
102
RTVSPost2010Prop33
280
     0
102
RTVSPost2010PropOp33
 70
     1
102
RTVSPost2010Prop34
280
     0
102
RTVSPost2010PropOp34
 70
     1
102
RTVSPost2010Prop35
280
     0
102
RTVSPost2010PropOp35
 70
     1
102
RTVSPost2010Prop36
280
     0
102
RTVSPost2010PropOp36
 70
     1
102
RTVSPost2010Prop37
 90
       50
102
RTVSPost2010PropOp37
 70
     1
102
RTVSPost2010Prop38
140
0.0
102
RTVSPost2010PropOp38
 70
     1
102
RTVSPost2010Prop39
140
1.0
102
RTVSPost2010PropOp39
 70
     1
102
RTVSPost2010Prop40
 90
        0
102
RTVSPost2010PropOp40
 70
     1
102
RTVSPost2010Prop41ColorIndex
 90
       18
102
RTVSPost2010Prop41ColorRGB
 90
        0
102
RTVSPost2010PropOp41
 70
     1
102
RTVSPost2010Prop42
 90
       50
102
RTVSPost2010PropOp42
 70
     1
102
RTVSPost2010Prop43
 90
        3
102
RTVSPost2010PropOp43
 70
     1
102
RTVSPost2010Prop44ColorIndex
 90
        5
102
RTVSPost2010Prop44ColorRGB
 90
      255
102
RTVSPost2010PropOp44
 70
     1
102
RTVSPost2010Prop45
280
     0
102
RTVSPost2010PropOp45
 70
     1
102
RTVSPost2010Prop46
 90
       50
102
RTVSPost2010PropOp46
 70
     1
102
RTVSPost2010Prop47
 90
       50
102
RTVSPost2010PropOp47
 70
     1
102
RTVSPost2010Prop48
 90
       50
102
RTVSPost2010PropOp48
 70
     1
102
RTVSPost2010Prop49
280
     0
102
RTVSPost2010PropOp49
 70
     1
102
RTVSPost2010Prop50
 90
       50
102
RTVSPost2010PropOp50
 70
     1
102
RTVSPost2010Prop51ColorIndex
 90
      256
102
RTVSPost2010Prop51ColorRGB
 90
-16777216
102
RTVSPost2010PropOp51
 70
     0
102
RTVSPost2010Prop52
140
1.0
102
RTVSPost2010PropOp52
 70
     0
102
RTVSPost2010Prop53
 90
        2
102
RTVSPost2010PropOp53
 70
     1
102
RTVSPost2010Prop54
  1
strokes_ogs.tif
102
RTVSPost2010PropOp54
 70
     1
102
RTVSPost2010Prop55
280
     0
102
RTVSPost2010PropOp55
 70
     1
102
RTVSPost2010Prop56
140
1.0
102
RTVSPost2010PropOp56
 70
     1
102
RTVSPost2010Prop57
140
1.0
102
RTVSPost2010PropOp57
 70
     1
102
RTVSPropertyOp0
 70
     0
102
RTVSPropertyOp1
 70
     0
102
RTVSPropertyOp2
 70
     0
102
RTVSPropertyOp3
 70
     0
102
RTVSPropertyOp4
 70
     0
102
RTVSPropertyOp5
 70
     0
102
RTVSPropertyOp6
 70
     0
102
RTVSPropertyOp7
 70
     0
102
RTVSPropertyOp8
 70
     0
102
RTVSPropertyOp9
 70
     0
102
RTVSPropertyOp10
 70
     0
102
RTVSPropertyOp11
 70
     0
102
RTVSPropertyOp12
 70
     0
102
RTVSPropertyOp13
 70
     0
102
RTVSPropertyOp14
 70
     2
102
RTVSPropertyOp15
 70
     0
102
RTVSPropertyOp16
 70
     0
102
RTVSPropertyOp17
 70
     0
102
RTVSPropertyOp18
 70
     0
102
RTVSPropertyOp19
 70
     0
102
RTVSPropertyOp20
 70
     0
102
RTVSPropertyOp21
 70
     0
102
RTVSPropertyOp22
 70
     0
102
RTVSPropertyOp23
 70
     0
102
RTVSPropertyOp24
 70
     0
102
RTVSPropertyOp25
 70
     0
102
RTVSPropertyOp26
 70
     0
102
RTVSPropertyOp27
 70
     0
102
RTVSPropertyOp28
 70
     1
102
RTVSPropertyOp29
 70
     1
102
RTVSPropertyOp30
 70
     1
102
RTVSPropertyOp31
 70
     1
102
RTVSPropertyOp32
 70
     1
102
RTVSPropertyOp33
 70
     1
102
RTVSPropertyOp34
 70
     1
102
RTVSPropertyOp35
 70
     1
102
RTVSPropertyOp36
 70
     1
102
RTVSPropertyOp37
 70
     1
102
RTVSPropertyOp38
 70
     1
102
RTVSPropertyOp39
 70
     1
102
RTVSPropertyOp40
 70
     1
102
RTVSPropertyOp41
 70
     1
102
RTVSPropertyOp42
 70
     1
102
RTVSPropertyOp43
 70
     1
102
RTVSPropertyOp44
 70
     1
102
RTVSPropertyOp45
 70
     1
102
RTVSPropertyOp46
 70
     1
102
RTVSPropertyOp47
 70
     1
102
RTVSPropertyOp48
 70
     1
102
RTVSPropertyOp49
 70
     1
102
RTVSPropertyOp50
 70
     1
102
RTVSPropertyOp51
 70
     0
102
RTVSPropertyOp52
 70
     0
102
RTVSPropertyOp53
 70
     1
102
RTVSPropertyOp54
 70
     1
102
RTVSPropertyOp55
 70
     1
102
RTVSPropertyOp56
 70
     1
102
RTVSPropertyOp57
 70
     1
102
RTVSPropertyOp58
 70
     1
102
RTVSPropertyOp59
 70
     1
102
RTVSPropertyOp60
 70
     1
102
RTVSPropertyOp61
 70
     1
102
RTVSPropertyOp62
 70
     1
  0
XRECORD
  5
BF2F
102
{ACAD_REACTORS
330
BF2E
102
}
330
BF2E
100
AcDbXrecord
280
     1
102
RTVSPost2010Prop28
280
     0
102
RTVSPost2010PropOp28
 70
     1
102
RTVSPost2010Prop29
280
     1
102
RTVSPost2010PropOp29
 70
     1
102
RTVSPost2010Prop30
280
     1
102
RTVSPost2010PropOp30
 70
     1
102
RTVSPost2010Prop31
280
     0
102
RTVSPost2010PropOp31
 70
     1
102
RTVSPost2010Prop32
280
     0
102
RTVSPost2010PropOp32
 70
     1
102
RTVSPost2010Prop33
280
     0
102
RTVSPost2010PropOp33
 70
     1
102
RTVSPost2010Prop34
280
     0
102
RTVSPost2010PropOp34
 70
     1
102
RTVSPost2010Prop35
280
     0
102
RTVSPost2010PropOp35
 70
     1
102
RTVSPost2010Prop36
280
     0
102
RTVSPost2010PropOp36
 70
     1
102
RTVSPost2010Prop37
 90
       50
102
RTVSPost2010PropOp37
 70
     1
102
RTVSPost2010Prop38
140
0.0
102
RTVSPost2010PropOp38
 70
     1
102
RTVSPost2010Prop39
140
1.0
102
RTVSPost2010PropOp39
 70
     1
102
RTVSPost2010Prop40
 90
        0
102
RTVSPost2010PropOp40
 70
     1
102
RTVSPost2010Prop41ColorIndex
 90
       18
102
RTVSPost2010Prop41ColorRGB
 90
        0
102
RTVSPost2010PropOp41
 70
     1
102
RTVSPost2010Prop42
 90
       50
102
RTVSPost2010PropOp42
 70
     1
102
RTVSPost2010Prop43
 90
        3
102
RTVSPost2010PropOp43
 70
     1
102
RTVSPost2010Prop44ColorIndex
 90
        5
102
RTVSPost2010Prop44ColorRGB
 90
      255
102
RTVSPost2010PropOp44
 70
     1
102
RTVSPost2010Prop45
280
     0
102
RTVSPost2010PropOp45
 70
     1
102
RTVSPost2010Prop46
 90
       50
102
RTVSPost2010PropOp46
 70
     1
102
RTVSPost2010Prop47
 90
       50
102
RTVSPost2010PropOp47
 70
     1
102
RTVSPost2010Prop48
 90
       50
102
RTVSPost2010PropOp48
 70
     1
102
RTVSPost2010Prop49
280
     0
102
RTVSPost2010PropOp49
 70
     1
102
RTVSPost2010Prop50
 90
       50
102
RTVSPost2010PropOp50
 70
     1
102
RTVSPost2010Prop51ColorIndex
 90
      256
102
RTVSPost2010Prop51ColorRGB
 90
-16777216
102
RTVSPost2010PropOp51
 70
     0
102
RTVSPost2010Prop52
140
1.0
102
RTVSPost2010PropOp52
 70
     0
102
RTVSPost2010Prop53
 90
        2
102
RTVSPost2010PropOp53
 70
     1
102
RTVSPost2010Prop54
  1
strokes_ogs.tif
102
RTVSPost2010PropOp54
 70
     1
102
RTVSPost2010Prop55
280
     0
102
RTVSPost2010PropOp55
 70
     1
102
RTVSPost2010Prop56
140
1.0
102
RTVSPost2010PropOp56
 70
     1
102
RTVSPost2010Prop57
140
1.0
102
RTVSPost2010PropOp57
 70
     1
102
RTVSPropertyOp0
 70
     1
102
RTVSPropertyOp1
 70
     1
102
RTVSPropertyOp2
 70
     1
102
RTVSPropertyOp3
 70
     1
102
RTVSPropertyOp4
 70
     1
102
RTVSPropertyOp5
 70
     1
102
RTVSPropertyOp6
 70
     1
102
RTVSPropertyOp7
 70
     1
102
RTVSPropertyOp8
 70
     1
102
RTVSPropertyOp9
 70
     1
102
RTVSPropertyOp10
 70
     1
102
RTVSPropertyOp11
 70
     1
102
RTVSPropertyOp12
 70
     1
102
RTVSPropertyOp13
 70
     1
102
RTVSPropertyOp14
 70
     1
102
RTVSPropertyOp15
 70
     1
102
RTVSPropertyOp16
 70
     1
102
RTVSPropertyOp17
 70
     1
102
RTVSPropertyOp18
 70
     1
102
RTVSPropertyOp19
 70
     1
102
RTVSPropertyOp20
 70
     1
102
RTVSPropertyOp21
 70
     1
102
RTVSPropertyOp22
 70
     1
102
RTVSPropertyOp23
 70
     1
102
RTVSPropertyOp24
 70
     1
102
RTVSPropertyOp25
 70
     1
102
RTVSPropertyOp26
 70
     1
102
RTVSPropertyOp27
 70
     1
102
RTVSPropertyOp28
 70
     1
102
RTVSPropertyOp29
 70
     1
102
RTVSPropertyOp30
 70
     1
102
RTVSPropertyOp31
 70
     1
102
RTVSPropertyOp32
 70
     1
102
RTVSPropertyOp33
 70
     1
102
RTVSPropertyOp34
 70
     1
102
RTVSPropertyOp35
 70
     1
102
RTVSPropertyOp36
 70
     1
102
RTVSPropertyOp37
 70
     1
102
RTVSPropertyOp38
 70
     1
102
RTVSPropertyOp39
 70
     1
102
RTVSPropertyOp40
 70
     1
102
RTVSPropertyOp41
 70
     1
102
RTVSPropertyOp42
 70
     1
102
RTVSPropertyOp43
 70
     1
102
RTVSPropertyOp44
 70
     1
102
RTVSPropertyOp45
 70
     1
102
RTVSPropertyOp46
 70
     1
102
RTVSPropertyOp47
 70
     1
102
RTVSPropertyOp48
 70
     1
102
RTVSPropertyOp49
 70
     1
102
RTVSPropertyOp50
 70
     1
102
RTVSPropertyOp51
 70
     0
102
RTVSPropertyOp52
 70
     0
102
RTVSPropertyOp53
 70
     1
102
RTVSPropertyOp54
 70
     1
102
RTVSPropertyOp55
 70
     1
102
RTVSPropertyOp56
 70
     1
102
RTVSPropertyOp57
 70
     1
102
RTVSPropertyOp58
 70
     1
102
RTVSPropertyOp59
 70
     1
102
RTVSPropertyOp60
 70
     1
102
RTVSPropertyOp61
 70
     1
102
RTVSPropertyOp62
 70
     1
  0
XRECORD
  5
BF4D
102
{ACAD_REACTORS
330
BF4C
102
}
330
BF4C
100
AcDbXrecord
280
     1
102
RTVSPost2010Prop28
280
     0
102
RTVSPost2010PropOp28
 70
     1
102
RTVSPost2010Prop29
280
     1
102
RTVSPost2010PropOp29
 70
     1
102
RTVSPost2010Prop30
280
     1
102
RTVSPost2010PropOp30
 70
     1
102
RTVSPost2010Prop31
280
     0
102
RTVSPost2010PropOp31
 70
     1
102
RTVSPost2010Prop32
280
     0
102
RTVSPost2010PropOp32
 70
     1
102
RTVSPost2010Prop33
280
     0
102
RTVSPost2010PropOp33
 70
     1
102
RTVSPost2010Prop34
280
     0
102
RTVSPost2010PropOp34
 70
     1
102
RTVSPost2010Prop35
280
     0
102
RTVSPost2010PropOp35
 70
     1
102
RTVSPost2010Prop36
280
     0
102
RTVSPost2010PropOp36
 70
     1
102
RTVSPost2010Prop37
 90
       50
102
RTVSPost2010PropOp37
 70
     1
102
RTVSPost2010Prop38
140
0.0
102
RTVSPost2010PropOp38
 70
     1
102
RTVSPost2010Prop39
140
1.0
102
RTVSPost2010PropOp39
 70
     1
102
RTVSPost2010Prop40
 90
        0
102
RTVSPost2010PropOp40
 70
     1
102
RTVSPost2010Prop41ColorIndex
 90
       18
102
RTVSPost2010Prop41ColorRGB
 90
        0
102
RTVSPost2010PropOp41
 70
     1
102
RTVSPost2010Prop42
 90
       50
102
RTVSPost2010PropOp42
 70
     1
102
RTVSPost2010Prop43
 90
        3
102
RTVSPost2010PropOp43
 70
     1
102
RTVSPost2010Prop44ColorIndex
 90
        5
102
RTVSPost2010Prop44ColorRGB
 90
      255
102
RTVSPost2010PropOp44
 70
     1
102
RTVSPost2010Prop45
280
     0
102
RTVSPost2010PropOp45
 70
     1
102
RTVSPost2010Prop46
 90
       50
102
RTVSPost2010PropOp46
 70
     1
102
RTVSPost2010Prop47
 90
       50
102
RTVSPost2010PropOp47
 70
     1
102
RTVSPost2010Prop48
 90
       50
102
RTVSPost2010PropOp48
 70
     1
102
RTVSPost2010Prop49
280
     0
102
RTVSPost2010PropOp49
 70
     1
102
RTVSPost2010Prop50
 90
       50
102
RTVSPost2010PropOp50
 70
     1
102
RTVSPost2010Prop51ColorIndex
 90
      256
102
RTVSPost2010Prop51ColorRGB
 90
-16777216
102
RTVSPost2010PropOp51
 70
     0
102
RTVSPost2010Prop52
140
1.0
102
RTVSPost2010PropOp52
 70
     0
102
RTVSPost2010Prop53
 90
        2
102
RTVSPost2010PropOp53
 70
     1
102
RTVSPost2010Prop54
  1
strokes_ogs.tif
102
RTVSPost2010PropOp54
 70
     1
102
RTVSPost2010Prop55
280
     0
102
RTVSPost2010PropOp55
 70
     1
102
RTVSPost2010Prop56
140
1.0
102
RTVSPost2010PropOp56
 70
     1
102
RTVSPost2010Prop57
140
1.0
102
RTVSPost2010PropOp57
 70
     1
102
RTVSPropertyOp0
 70
     1
102
RTVSPropertyOp1
 70
     1
102
RTVSPropertyOp2
 70
     1
102
RTVSPropertyOp3
 70
     1
102
RTVSPropertyOp4
 70
     1
102
RTVSPropertyOp5
 70
     1
102
RTVSPropertyOp6
 70
     1
102
RTVSPropertyOp7
 70
     1
102
RTVSPropertyOp8
 70
     1
102
RTVSPropertyOp9
 70
     1
102
RTVSPropertyOp10
 70
     1
102
RTVSPropertyOp11
 70
     1
102
RTVSPropertyOp12
 70
     1
102
RTVSPropertyOp13
 70
     1
102
RTVSPropertyOp14
 70
     1
102
RTVSPropertyOp15
 70
     1
102
RTVSPropertyOp16
 70
     1
102
RTVSPropertyOp17
 70
     1
102
RTVSPropertyOp18
 70
     1
102
RTVSPropertyOp19
 70
     1
102
RTVSPropertyOp20
 70
     1
102
RTVSPropertyOp21
 70
     1
102
RTVSPropertyOp22
 70
     1
102
RTVSPropertyOp23
 70
     1
102
RTVSPropertyOp24
 70
     1
102
RTVSPropertyOp25
 70
     1
102
RTVSPropertyOp26
 70
     1
102
RTVSPropertyOp27
 70
     1
102
RTVSPropertyOp28
 70
     1
102
RTVSPropertyOp29
 70
     1
102
RTVSPropertyOp30
 70
     1
102
RTVSPropertyOp31
 70
     1
102
RTVSPropertyOp32
 70
     1
102
RTVSPropertyOp33
 70
     1
102
RTVSPropertyOp34
 70
     1
102
RTVSPropertyOp35
 70
     1
102
RTVSPropertyOp36
 70
     1
102
RTVSPropertyOp37
 70
     1
102
RTVSPropertyOp38
 70
     1
102
RTVSPropertyOp39
 70
     1
102
RTVSPropertyOp40
 70
     1
102
RTVSPropertyOp41
 70
     1
102
RTVSPropertyOp42
 70
     1
102
RTVSPropertyOp43
 70
     1
102
RTVSPropertyOp44
 70
     1
102
RTVSPropertyOp45
 70
     1
102
RTVSPropertyOp46
 70
     1
102
RTVSPropertyOp47
 70
     1
102
RTVSPropertyOp48
 70
     1
102
RTVSPropertyOp49
 70
     1
102
RTVSPropertyOp50
 70
     1
102
RTVSPropertyOp51
 70
     0
102
RTVSPropertyOp52
 70
     0
102
RTVSPropertyOp53
 70
     1
102
RTVSPropertyOp54
 70
     1
102
RTVSPropertyOp55
 70
     1
102
RTVSPropertyOp56
 70
     1
102
RTVSPropertyOp57
 70
     1
102
RTVSPropertyOp58
 70
     1
102
RTVSPropertyOp59
 70
     1
102
RTVSPropertyOp60
 70
     1
102
RTVSPropertyOp61
 70
     1
102
RTVSPropertyOp62
 70
     1
  0
XRECORD
  5
BF4B
102
{ACAD_REACTORS
330
BF4A
102
}
330
BF4A
100
AcDbXrecord
280
     1
102
RTVSPost2010Prop28
280
     0
102
RTVSPost2010PropOp28
 70
     1
102
RTVSPost2010Prop29
280
     1
102
RTVSPost2010PropOp29
 70
     1
102
RTVSPost2010Prop30
280
     1
102
RTVSPost2010PropOp30
 70
     1
102
RTVSPost2010Prop31
280
     0
102
RTVSPost2010PropOp31
 70
     1
102
RTVSPost2010Prop32
280
     0
102
RTVSPost2010PropOp32
 70
     1
102
RTVSPost2010Prop33
280
     0
102
RTVSPost2010PropOp33
 70
     1
102
RTVSPost2010Prop34
280
     0
102
RTVSPost2010PropOp34
 70
     1
102
RTVSPost2010Prop35
280
     0
102
RTVSPost2010PropOp35
 70
     1
102
RTVSPost2010Prop36
280
     0
102
RTVSPost2010PropOp36
 70
     1
102
RTVSPost2010Prop37
 90
       50
102
RTVSPost2010PropOp37
 70
     1
102
RTVSPost2010Prop38
140
0.0
102
RTVSPost2010PropOp38
 70
     1
102
RTVSPost2010Prop39
140
1.0
102
RTVSPost2010PropOp39
 70
     1
102
RTVSPost2010Prop40
 90
        0
102
RTVSPost2010PropOp40
 70
     1
102
RTVSPost2010Prop41ColorIndex
 90
       18
102
RTVSPost2010Prop41ColorRGB
 90
        0
102
RTVSPost2010PropOp41
 70
     1
102
RTVSPost2010Prop42
 90
       50
102
RTVSPost2010PropOp42
 70
     1
102
RTVSPost2010Prop43
 90
        3
102
RTVSPost2010PropOp43
 70
     1
102
RTVSPost2010Prop44ColorIndex
 90
        5
102
RTVSPost2010Prop44ColorRGB
 90
      255
102
RTVSPost2010PropOp44
 70
     1
102
RTVSPost2010Prop45
280
     0
102
RTVSPost2010PropOp45
 70
     1
102
RTVSPost2010Prop46
 90
       50
102
RTVSPost2010PropOp46
 70
     1
102
RTVSPost2010Prop47
 90
       50
102
RTVSPost2010PropOp47
 70
     1
102
RTVSPost2010Prop48
 90
       50
102
RTVSPost2010PropOp48
 70
     1
102
RTVSPost2010Prop49
280
     0
102
RTVSPost2010PropOp49
 70
     1
102
RTVSPost2010Prop50
 90
       50
102
RTVSPost2010PropOp50
 70
     1
102
RTVSPost2010Prop51ColorIndex
 90
      256
102
RTVSPost2010Prop51ColorRGB
 90
-16777216
102
RTVSPost2010PropOp51
 70
     0
102
RTVSPost2010Prop52
140
1.0
102
RTVSPost2010PropOp52
 70
     0
102
RTVSPost2010Prop53
 90
        2
102
RTVSPost2010PropOp53
 70
     1
102
RTVSPost2010Prop54
  1
strokes_ogs.tif
102
RTVSPost2010PropOp54
 70
     1
102
RTVSPost2010Prop55
280
     0
102
RTVSPost2010PropOp55
 70
     1
102
RTVSPost2010Prop56
140
1.0
102
RTVSPost2010PropOp56
 70
     1
102
RTVSPost2010Prop57
140
1.0
102
RTVSPost2010PropOp57
 70
     1
102
RTVSPropertyOp0
 70
     1
102
RTVSPropertyOp1
 70
     1
102
RTVSPropertyOp2
 70
     1
102
RTVSPropertyOp3
 70
     1
102
RTVSPropertyOp4
 70
     1
102
RTVSPropertyOp5
 70
     1
102
RTVSPropertyOp6
 70
     1
102
RTVSPropertyOp7
 70
     1
102
RTVSPropertyOp8
 70
     1
102
RTVSPropertyOp9
 70
     1
102
RTVSPropertyOp10
 70
     1
102
RTVSPropertyOp11
 70
     1
102
RTVSPropertyOp12
 70
     1
102
RTVSPropertyOp13
 70
     1
102
RTVSPropertyOp14
 70
     1
102
RTVSPropertyOp15
 70
     1
102
RTVSPropertyOp16
 70
     1
102
RTVSPropertyOp17
 70
     1
102
RTVSPropertyOp18
 70
     1
102
RTVSPropertyOp19
 70
     1
102
RTVSPropertyOp20
 70
     1
102
RTVSPropertyOp21
 70
     1
102
RTVSPropertyOp22
 70
     1
102
RTVSPropertyOp23
 70
     1
102
RTVSPropertyOp24
 70
     1
102
RTVSPropertyOp25
 70
     1
102
RTVSPropertyOp26
 70
     1
102
RTVSPropertyOp27
 70
     1
102
RTVSPropertyOp28
 70
     1
102
RTVSPropertyOp29
 70
     1
102
RTVSPropertyOp30
 70
     1
102
RTVSPropertyOp31
 70
     1
102
RTVSPropertyOp32
 70
     1
102
RTVSPropertyOp33
 70
     1
102
RTVSPropertyOp34
 70
     1
102
RTVSPropertyOp35
 70
     1
102
RTVSPropertyOp36
 70
     1
102
RTVSPropertyOp37
 70
     1
102
RTVSPropertyOp38
 70
     1
102
RTVSPropertyOp39
 70
     1
102
RTVSPropertyOp40
 70
     1
102
RTVSPropertyOp41
 70
     1
102
RTVSPropertyOp42
 70
     1
102
RTVSPropertyOp43
 70
     1
102
RTVSPropertyOp44
 70
     1
102
RTVSPropertyOp45
 70
     1
102
RTVSPropertyOp46
 70
     1
102
RTVSPropertyOp47
 70
     1
102
RTVSPropertyOp48
 70
     1
102
RTVSPropertyOp49
 70
     1
102
RTVSPropertyOp50
 70
     1
102
RTVSPropertyOp51
 70
     0
102
RTVSPropertyOp52
 70
     0
102
RTVSPropertyOp53
 70
     1
102
RTVSPropertyOp54
 70
     1
102
RTVSPropertyOp55
 70
     1
102
RTVSPropertyOp56
 70
     1
102
RTVSPropertyOp57
 70
     1
102
RTVSPropertyOp58
 70
     1
102
RTVSPropertyOp59
 70
     1
102
RTVSPropertyOp60
 70
     1
102
RTVSPropertyOp61
 70
     1
102
RTVSPropertyOp62
 70
     1
  0
XRECORD
  5
BF45
102
{ACAD_REACTORS
330
BF44
102
}
330
BF44
100
AcDbXrecord
280
     1
102
RTVSPost2010Prop28
280
     0
102
RTVSPost2010PropOp28
 70
     1
102
RTVSPost2010Prop29
280
     1
102
RTVSPost2010PropOp29
 70
     1
102
RTVSPost2010Prop30
280
     1
102
RTVSPost2010PropOp30
 70
     1
102
RTVSPost2010Prop31
280
     0
102
RTVSPost2010PropOp31
 70
     1
102
RTVSPost2010Prop32
280
     0
102
RTVSPost2010PropOp32
 70
     1
102
RTVSPost2010Prop33
280
     0
102
RTVSPost2010PropOp33
 70
     1
102
RTVSPost2010Prop34
280
     0
102
RTVSPost2010PropOp34
 70
     1
102
RTVSPost2010Prop35
280
     0
102
RTVSPost2010PropOp35
 70
     1
102
RTVSPost2010Prop36
280
     0
102
RTVSPost2010PropOp36
 70
     1
102
RTVSPost2010Prop37
 90
       50
102
RTVSPost2010PropOp37
 70
     1
102
RTVSPost2010Prop38
140
0.0
102
RTVSPost2010PropOp38
 70
     1
102
RTVSPost2010Prop39
140
1.0
102
RTVSPost2010PropOp39
 70
     1
102
RTVSPost2010Prop40
 90
        0
102
RTVSPost2010PropOp40
 70
     1
102
RTVSPost2010Prop41ColorIndex
 90
       18
102
RTVSPost2010Prop41ColorRGB
 90
        0
102
RTVSPost2010PropOp41
 70
     1
102
RTVSPost2010Prop42
 90
       50
102
RTVSPost2010PropOp42
 70
     1
102
RTVSPost2010Prop43
 90
        3
102
RTVSPost2010PropOp43
 70
     1
102
RTVSPost2010Prop44ColorIndex
 90
        5
102
RTVSPost2010Prop44ColorRGB
 90
      255
102
RTVSPost2010PropOp44
 70
     1
102
RTVSPost2010Prop45
280
     0
102
RTVSPost2010PropOp45
 70
     1
102
RTVSPost2010Prop46
 90
       50
102
RTVSPost2010PropOp46
 70
     1
102
RTVSPost2010Prop47
 90
       50
102
RTVSPost2010PropOp47
 70
     1
102
RTVSPost2010Prop48
 90
       50
102
RTVSPost2010PropOp48
 70
     1
102
RTVSPost2010Prop49
280
     0
102
RTVSPost2010PropOp49
 70
     1
102
RTVSPost2010Prop50
 90
       50
102
RTVSPost2010PropOp50
 70
     1
102
RTVSPost2010Prop51ColorIndex
 90
      256
102
RTVSPost2010Prop51ColorRGB
 90
-16777216
102
RTVSPost2010PropOp51
 70
     0
102
RTVSPost2010Prop52
140
1.0
102
RTVSPost2010PropOp52
 70
     0
102
RTVSPost2010Prop53
 90
        2
102
RTVSPost2010PropOp53
 70
     1
102
RTVSPost2010Prop54
  1
strokes_ogs.tif
102
RTVSPost2010PropOp54
 70
     1
102
RTVSPost2010Prop55
280
     0
102
RTVSPost2010PropOp55
 70
     1
102
RTVSPost2010Prop56
140
1.0
102
RTVSPost2010PropOp56
 70
     1
102
RTVSPost2010Prop57
140
1.0
102
RTVSPost2010PropOp57
 70
     1
102
RTVSPropertyOp0
 70
     1
102
RTVSPropertyOp1
 70
     1
102
RTVSPropertyOp2
 70
     1
102
RTVSPropertyOp3
 70
     1
102
RTVSPropertyOp4
 70
     1
102
RTVSPropertyOp5
 70
     1
102
RTVSPropertyOp6
 70
     1
102
RTVSPropertyOp7
 70
     1
102
RTVSPropertyOp8
 70
     1
102
RTVSPropertyOp9
 70
     1
102
RTVSPropertyOp10
 70
     1
102
RTVSPropertyOp11
 70
     1
102
RTVSPropertyOp12
 70
     1
102
RTVSPropertyOp13
 70
     1
102
RTVSPropertyOp14
 70
     1
102
RTVSPropertyOp15
 70
     1
102
RTVSPropertyOp16
 70
     1
102
RTVSPropertyOp17
 70
     1
102
RTVSPropertyOp18
 70
     1
102
RTVSPropertyOp19
 70
     1
102
RTVSPropertyOp20
 70
     1
102
RTVSPropertyOp21
 70
     1
102
RTVSPropertyOp22
 70
     1
102
RTVSPropertyOp23
 70
     1
102
RTVSPropertyOp24
 70
     1
102
RTVSPropertyOp25
 70
     1
102
RTVSPropertyOp26
 70
     1
102
RTVSPropertyOp27
 70
     1
102
RTVSPropertyOp28
 70
     1
102
RTVSPropertyOp29
 70
     1
102
RTVSPropertyOp30
 70
     1
102
RTVSPropertyOp31
 70
     1
102
RTVSPropertyOp32
 70
     1
102
RTVSPropertyOp33
 70
     1
102
RTVSPropertyOp34
 70
     1
102
RTVSPropertyOp35
 70
     1
102
RTVSPropertyOp36
 70
     1
102
RTVSPropertyOp37
 70
     1
102
RTVSPropertyOp38
 70
     1
102
RTVSPropertyOp39
 70
     1
102
RTVSPropertyOp40
 70
     1
102
RTVSPropertyOp41
 70
     1
102
RTVSPropertyOp42
 70
     1
102
RTVSPropertyOp43
 70
     1
102
RTVSPropertyOp44
 70
     1
102
RTVSPropertyOp45
 70
     1
102
RTVSPropertyOp46
 70
     1
102
RTVSPropertyOp47
 70
     1
102
RTVSPropertyOp48
 70
     1
102
RTVSPropertyOp49
 70
     1
102
RTVSPropertyOp50
 70
     1
102
RTVSPropertyOp51
 70
     0
102
RTVSPropertyOp52
 70
     0
102
RTVSPropertyOp53
 70
     1
102
RTVSPropertyOp54
 70
     1
102
RTVSPropertyOp55
 70
     1
102
RTVSPropertyOp56
 70
     1
102
RTVSPropertyOp57
 70
     1
102
RTVSPropertyOp58
 70
     1
102
RTVSPropertyOp59
 70
     1
102
RTVSPropertyOp60
 70
     1
102
RTVSPropertyOp61
 70
     1
102
RTVSPropertyOp62
 70
     1
  0
XRECORD
  5
BF47
102
{ACAD_REACTORS
330
BF46
102
}
330
BF46
100
AcDbXrecord
280
     1
102
RTVSPost2010Prop28
280
     0
102
RTVSPost2010PropOp28
 70
     1
102
RTVSPost2010Prop29
280
     1
102
RTVSPost2010PropOp29
 70
     1
102
RTVSPost2010Prop30
280
     1
102
RTVSPost2010PropOp30
 70
     1
102
RTVSPost2010Prop31
280
     0
102
RTVSPost2010PropOp31
 70
     1
102
RTVSPost2010Prop32
280
     0
102
RTVSPost2010PropOp32
 70
     1
102
RTVSPost2010Prop33
280
     0
102
RTVSPost2010PropOp33
 70
     1
102
RTVSPost2010Prop34
280
     0
102
RTVSPost2010PropOp34
 70
     1
102
RTVSPost2010Prop35
280
     0
102
RTVSPost2010PropOp35
 70
     1
102
RTVSPost2010Prop36
280
     0
102
RTVSPost2010PropOp36
 70
     1
102
RTVSPost2010Prop37
 90
       50
102
RTVSPost2010PropOp37
 70
     1
102
RTVSPost2010Prop38
140
0.0
102
RTVSPost2010PropOp38
 70
     1
102
RTVSPost2010Prop39
140
1.0
102
RTVSPost2010PropOp39
 70
     1
102
RTVSPost2010Prop40
 90
        0
102
RTVSPost2010PropOp40
 70
     1
102
RTVSPost2010Prop41ColorIndex
 90
       18
102
RTVSPost2010Prop41ColorRGB
 90
        0
102
RTVSPost2010PropOp41
 70
     1
102
RTVSPost2010Prop42
 90
       50
102
RTVSPost2010PropOp42
 70
     1
102
RTVSPost2010Prop43
 90
        3
102
RTVSPost2010PropOp43
 70
     1
102
RTVSPost2010Prop44ColorIndex
 90
        5
102
RTVSPost2010Prop44ColorRGB
 90
      255
102
RTVSPost2010PropOp44
 70
     1
102
RTVSPost2010Prop45
280
     0
102
RTVSPost2010PropOp45
 70
     1
102
RTVSPost2010Prop46
 90
       50
102
RTVSPost2010PropOp46
 70
     1
102
RTVSPost2010Prop47
 90
       50
102
RTVSPost2010PropOp47
 70
     1
102
RTVSPost2010Prop48
 90
       50
102
RTVSPost2010PropOp48
 70
     1
102
RTVSPost2010Prop49
280
     0
102
RTVSPost2010PropOp49
 70
     1
102
RTVSPost2010Prop50
 90
       50
102
RTVSPost2010PropOp50
 70
     1
102
RTVSPost2010Prop51ColorIndex
 90
      256
102
RTVSPost2010Prop51ColorRGB
 90
-16777216
102
RTVSPost2010PropOp51
 70
     0
102
RTVSPost2010Prop52
140
1.0
102
RTVSPost2010PropOp52
 70
     0
102
RTVSPost2010Prop53
 90
        2
102
RTVSPost2010PropOp53
 70
     1
102
RTVSPost2010Prop54
  1
strokes_ogs.tif
102
RTVSPost2010PropOp54
 70
     1
102
RTVSPost2010Prop55
280
     0
102
RTVSPost2010PropOp55
 70
     1
102
RTVSPost2010Prop56
140
1.0
102
RTVSPost2010PropOp56
 70
     1
102
RTVSPost2010Prop57
140
1.0
102
RTVSPost2010PropOp57
 70
     1
102
RTVSPropertyOp0
 70
     1
102
RTVSPropertyOp1
 70
     1
102
RTVSPropertyOp2
 70
     1
102
RTVSPropertyOp3
 70
     1
102
RTVSPropertyOp4
 70
     1
102
RTVSPropertyOp5
 70
     1
102
RTVSPropertyOp6
 70
     1
102
RTVSPropertyOp7
 70
     1
102
RTVSPropertyOp8
 70
     1
102
RTVSPropertyOp9
 70
     1
102
RTVSPropertyOp10
 70
     1
102
RTVSPropertyOp11
 70
     1
102
RTVSPropertyOp12
 70
     1
102
RTVSPropertyOp13
 70
     1
102
RTVSPropertyOp14
 70
     1
102
RTVSPropertyOp15
 70
     1
102
RTVSPropertyOp16
 70
     1
102
RTVSPropertyOp17
 70
     1
102
RTVSPropertyOp18
 70
     1
102
RTVSPropertyOp19
 70
     1
102
RTVSPropertyOp20
 70
     1
102
RTVSPropertyOp21
 70
     1
102
RTVSPropertyOp22
 70
     1
102
RTVSPropertyOp23
 70
     1
102
RTVSPropertyOp24
 70
     1
102
RTVSPropertyOp25
 70
     1
102
RTVSPropertyOp26
 70
     1
102
RTVSPropertyOp27
 70
     1
102
RTVSPropertyOp28
 70
     1
102
RTVSPropertyOp29
 70
     1
102
RTVSPropertyOp30
 70
     1
102
RTVSPropertyOp31
 70
     1
102
RTVSPropertyOp32
 70
     1
102
RTVSPropertyOp33
 70
     1
102
RTVSPropertyOp34
 70
     1
102
RTVSPropertyOp35
 70
     1
102
RTVSPropertyOp36
 70
     1
102
RTVSPropertyOp37
 70
     1
102
RTVSPropertyOp38
 70
     1
102
RTVSPropertyOp39
 70
     1
102
RTVSPropertyOp40
 70
     1
102
RTVSPropertyOp41
 70
     1
102
RTVSPropertyOp42
 70
     1
102
RTVSPropertyOp43
 70
     1
102
RTVSPropertyOp44
 70
     1
102
RTVSPropertyOp45
 70
     1
102
RTVSPropertyOp46
 70
     1
102
RTVSPropertyOp47
 70
     1
102
RTVSPropertyOp48
 70
     1
102
RTVSPropertyOp49
 70
     1
102
RTVSPropertyOp50
 70
     1
102
RTVSPropertyOp51
 70
     0
102
RTVSPropertyOp52
 70
     0
102
RTVSPropertyOp53
 70
     1
102
RTVSPropertyOp54
 70
     1
102
RTVSPropertyOp55
 70
     1
102
RTVSPropertyOp56
 70
     1
102
RTVSPropertyOp57
 70
     1
102
RTVSPropertyOp58
 70
     1
102
RTVSPropertyOp59
 70
     1
102
RTVSPropertyOp60
 70
     1
102
RTVSPropertyOp61
 70
     1
102
RTVSPropertyOp62
 70
     1
  0
XRECORD
  5
BF35
102
{ACAD_REACTORS
330
BF34
102
}
330
BF34
100
AcDbXrecord
280
     1
102
RTVSPost2010Prop28
280
     0
102
RTVSPost2010PropOp28
 70
     1
102
RTVSPost2010Prop29
280
     1
102
RTVSPost2010PropOp29
 70
     1
102
RTVSPost2010Prop30
280
     1
102
RTVSPost2010PropOp30
 70
     1
102
RTVSPost2010Prop31
280
     0
102
RTVSPost2010PropOp31
 70
     1
102
RTVSPost2010Prop32
280
     0
102
RTVSPost2010PropOp32
 70
     1
102
RTVSPost2010Prop33
280
     0
102
RTVSPost2010PropOp33
 70
     1
102
RTVSPost2010Prop34
280
     0
102
RTVSPost2010PropOp34
 70
     1
102
RTVSPost2010Prop35
280
     0
102
RTVSPost2010PropOp35
 70
     1
102
RTVSPost2010Prop36
280
     0
102
RTVSPost2010PropOp36
 70
     1
102
RTVSPost2010Prop37
 90
       50
102
RTVSPost2010PropOp37
 70
     1
102
RTVSPost2010Prop38
140
0.0
102
RTVSPost2010PropOp38
 70
     1
102
RTVSPost2010Prop39
140
1.0
102
RTVSPost2010PropOp39
 70
     1
102
RTVSPost2010Prop40
 90
        0
102
RTVSPost2010PropOp40
 70
     1
102
RTVSPost2010Prop41ColorIndex
 90
       18
102
RTVSPost2010Prop41ColorRGB
 90
        0
102
RTVSPost2010PropOp41
 70
     1
102
RTVSPost2010Prop42
 90
       50
102
RTVSPost2010PropOp42
 70
     1
102
RTVSPost2010Prop43
 90
        3
102
RTVSPost2010PropOp43
 70
     1
102
RTVSPost2010Prop44ColorIndex
 90
        5
102
RTVSPost2010Prop44ColorRGB
 90
      255
102
RTVSPost2010PropOp44
 70
     1
102
RTVSPost2010Prop45
280
     0
102
RTVSPost2010PropOp45
 70
     1
102
RTVSPost2010Prop46
 90
       50
102
RTVSPost2010PropOp46
 70
     1
102
RTVSPost2010Prop47
 90
       50
102
RTVSPost2010PropOp47
 70
     1
102
RTVSPost2010Prop48
 90
       50
102
RTVSPost2010PropOp48
 70
     1
102
RTVSPost2010Prop49
280
     0
102
RTVSPost2010PropOp49
 70
     1
102
RTVSPost2010Prop50
 90
       50
102
RTVSPost2010PropOp50
 70
     1
102
RTVSPost2010Prop51ColorIndex
 90
      256
102
RTVSPost2010Prop51ColorRGB
 90
-16777216
102
RTVSPost2010PropOp51
 70
     0
102
RTVSPost2010Prop52
140
1.0
102
RTVSPost2010PropOp52
 70
     0
102
RTVSPost2010Prop53
 90
        2
102
RTVSPost2010PropOp53
 70
     1
102
RTVSPost2010Prop54
  1
strokes_ogs.tif
102
RTVSPost2010PropOp54
 70
     1
102
RTVSPost2010Prop55
280
     0
102
RTVSPost2010PropOp55
 70
     1
102
RTVSPost2010Prop56
140
1.0
102
RTVSPost2010PropOp56
 70
     1
102
RTVSPost2010Prop57
140
1.0
102
RTVSPost2010PropOp57
 70
     1
102
RTVSPropertyOp0
 70
     1
102
RTVSPropertyOp1
 70
     1
102
RTVSPropertyOp2
 70
     1
102
RTVSPropertyOp3
 70
     1
102
RTVSPropertyOp4
 70
     1
102
RTVSPropertyOp5
 70
     1
102
RTVSPropertyOp6
 70
     1
102
RTVSPropertyOp7
 70
     1
102
RTVSPropertyOp8
 70
     1
102
RTVSPropertyOp9
 70
     1
102
RTVSPropertyOp10
 70
     1
102
RTVSPropertyOp11
 70
     1
102
RTVSPropertyOp12
 70
     1
102
RTVSPropertyOp13
 70
     1
102
RTVSPropertyOp14
 70
     1
102
RTVSPropertyOp15
 70
     1
102
RTVSPropertyOp16
 70
     1
102
RTVSPropertyOp17
 70
     1
102
RTVSPropertyOp18
 70
     1
102
RTVSPropertyOp19
 70
     1
102
RTVSPropertyOp20
 70
     1
102
RTVSPropertyOp21
 70
     1
102
RTVSPropertyOp22
 70
     1
102
RTVSPropertyOp23
 70
     1
102
RTVSPropertyOp24
 70
     1
102
RTVSPropertyOp25
 70
     1
102
RTVSPropertyOp26
 70
     1
102
RTVSPropertyOp27
 70
     1
102
RTVSPropertyOp28
 70
     1
102
RTVSPropertyOp29
 70
     1
102
RTVSPropertyOp30
 70
     1
102
RTVSPropertyOp31
 70
     1
102
RTVSPropertyOp32
 70
     1
102
RTVSPropertyOp33
 70
     1
102
RTVSPropertyOp34
 70
     1
102
RTVSPropertyOp35
 70
     1
102
RTVSPropertyOp36
 70
     1
102
RTVSPropertyOp37
 70
     1
102
RTVSPropertyOp38
 70
     1
102
RTVSPropertyOp39
 70
     1
102
RTVSPropertyOp40
 70
     1
102
RTVSPropertyOp41
 70
     1
102
RTVSPropertyOp42
 70
     1
102
RTVSPropertyOp43
 70
     1
102
RTVSPropertyOp44
 70
     1
102
RTVSPropertyOp45
 70
     1
102
RTVSPropertyOp46
 70
     1
102
RTVSPropertyOp47
 70
     1
102
RTVSPropertyOp48
 70
     1
102
RTVSPropertyOp49
 70
     1
102
RTVSPropertyOp50
 70
     1
102
RTVSPropertyOp51
 70
     0
102
RTVSPropertyOp52
 70
     0
102
RTVSPropertyOp53
 70
     1
102
RTVSPropertyOp54
 70
     1
102
RTVSPropertyOp55
 70
     1
102
RTVSPropertyOp56
 70
     1
102
RTVSPropertyOp57
 70
     1
102
RTVSPropertyOp58
 70
     1
102
RTVSPropertyOp59
 70
     1
102
RTVSPropertyOp60
 70
     1
102
RTVSPropertyOp61
 70
     1
102
RTVSPropertyOp62
 70
     1
  0
XRECORD
  5
BF29
102
{ACAD_REACTORS
330
BF28
102
}
330
BF28
100
AcDbXrecord
280
     1
102
RTVSPost2010Prop28
280
     0
102
RTVSPost2010PropOp28
 70
     1
102
RTVSPost2010Prop29
280
     1
102
RTVSPost2010PropOp29
 70
     1
102
RTVSPost2010Prop30
280
     1
102
RTVSPost2010PropOp30
 70
     1
102
RTVSPost2010Prop31
280
     0
102
RTVSPost2010PropOp31
 70
     1
102
RTVSPost2010Prop32
280
     0
102
RTVSPost2010PropOp32
 70
     1
102
RTVSPost2010Prop33
280
     0
102
RTVSPost2010PropOp33
 70
     1
102
RTVSPost2010Prop34
280
     0
102
RTVSPost2010PropOp34
 70
     1
102
RTVSPost2010Prop35
280
     0
102
RTVSPost2010PropOp35
 70
     1
102
RTVSPost2010Prop36
280
     0
102
RTVSPost2010PropOp36
 70
     1
102
RTVSPost2010Prop37
 90
       50
102
RTVSPost2010PropOp37
 70
     1
102
RTVSPost2010Prop38
140
0.0
102
RTVSPost2010PropOp38
 70
     1
102
RTVSPost2010Prop39
140
1.0
102
RTVSPost2010PropOp39
 70
     1
102
RTVSPost2010Prop40
 90
        0
102
RTVSPost2010PropOp40
 70
     1
102
RTVSPost2010Prop41ColorIndex
 90
       18
102
RTVSPost2010Prop41ColorRGB
 90
        0
102
RTVSPost2010PropOp41
 70
     1
102
RTVSPost2010Prop42
 90
       50
102
RTVSPost2010PropOp42
 70
     1
102
RTVSPost2010Prop43
 90
        3
102
RTVSPost2010PropOp43
 70
     1
102
RTVSPost2010Prop44ColorIndex
 90
        5
102
RTVSPost2010Prop44ColorRGB
 90
      255
102
RTVSPost2010PropOp44
 70
     1
102
RTVSPost2010Prop45
280
     0
102
RTVSPost2010PropOp45
 70
     1
102
RTVSPost2010Prop46
 90
       50
102
RTVSPost2010PropOp46
 70
     1
102
RTVSPost2010Prop47
 90
       50
102
RTVSPost2010PropOp47
 70
     1
102
RTVSPost2010Prop48
 90
       50
102
RTVSPost2010PropOp48
 70
     1
102
RTVSPost2010Prop49
280
     0
102
RTVSPost2010PropOp49
 70
     1
102
RTVSPost2010Prop50
 90
       50
102
RTVSPost2010PropOp50
 70
     1
102
RTVSPost2010Prop51ColorIndex
 90
      256
102
RTVSPost2010Prop51ColorRGB
 90
-16777216
102
RTVSPost2010PropOp51
 70
     0
102
RTVSPost2010Prop52
140
1.0
102
RTVSPost2010PropOp52
 70
     0
102
RTVSPost2010Prop53
 90
        2
102
RTVSPost2010PropOp53
 70
     1
102
RTVSPost2010Prop54
  1
strokes_ogs.tif
102
RTVSPost2010PropOp54
 70
     1
102
RTVSPost2010Prop55
280
     0
102
RTVSPost2010PropOp55
 70
     1
102
RTVSPost2010Prop56
140
1.0
102
RTVSPost2010PropOp56
 70
     1
102
RTVSPost2010Prop57
140
1.0
102
RTVSPost2010PropOp57
 70
     1
102
RTVSPropertyOp0
 70
     1
102
RTVSPropertyOp1
 70
     1
102
RTVSPropertyOp2
 70
     1
102
RTVSPropertyOp3
 70
     1
102
RTVSPropertyOp4
 70
     1
102
RTVSPropertyOp5
 70
     1
102
RTVSPropertyOp6
 70
     1
102
RTVSPropertyOp7
 70
     1
102
RTVSPropertyOp8
 70
     1
102
RTVSPropertyOp9
 70
     1
102
RTVSPropertyOp10
 70
     1
102
RTVSPropertyOp11
 70
     1
102
RTVSPropertyOp12
 70
     1
102
RTVSPropertyOp13
 70
     1
102
RTVSPropertyOp14
 70
     1
102
RTVSPropertyOp15
 70
     1
102
RTVSPropertyOp16
 70
     1
102
RTVSPropertyOp17
 70
     1
102
RTVSPropertyOp18
 70
     1
102
RTVSPropertyOp19
 70
     1
102
RTVSPropertyOp20
 70
     1
102
RTVSPropertyOp21
 70
     1
102
RTVSPropertyOp22
 70
     1
102
RTVSPropertyOp23
 70
     1
102
RTVSPropertyOp24
 70
     1
102
RTVSPropertyOp25
 70
     1
102
RTVSPropertyOp26
 70
     1
102
RTVSPropertyOp27
 70
     1
102
RTVSPropertyOp28
 70
     1
102
RTVSPropertyOp29
 70
     1
102
RTVSPropertyOp30
 70
     1
102
RTVSPropertyOp31
 70
     1
102
RTVSPropertyOp32
 70
     1
102
RTVSPropertyOp33
 70
     1
102
RTVSPropertyOp34
 70
     1
102
RTVSPropertyOp35
 70
     1
102
RTVSPropertyOp36
 70
     1
102
RTVSPropertyOp37
 70
     1
102
RTVSPropertyOp38
 70
     1
102
RTVSPropertyOp39
 70
     1
102
RTVSPropertyOp40
 70
     1
102
RTVSPropertyOp41
 70
     1
102
RTVSPropertyOp42
 70
     1
102
RTVSPropertyOp43
 70
     1
102
RTVSPropertyOp44
 70
     1
102
RTVSPropertyOp45
 70
     1
102
RTVSPropertyOp46
 70
     1
102
RTVSPropertyOp47
 70
     1
102
RTVSPropertyOp48
 70
     1
102
RTVSPropertyOp49
 70
     1
102
RTVSPropertyOp50
 70
     1
102
RTVSPropertyOp51
 70
     0
102
RTVSPropertyOp52
 70
     0
102
RTVSPropertyOp53
 70
     1
102
RTVSPropertyOp54
 70
     1
102
RTVSPropertyOp55
 70
     1
102
RTVSPropertyOp56
 70
     1
102
RTVSPropertyOp57
 70
     1
102
RTVSPropertyOp58
 70
     1
102
RTVSPropertyOp59
 70
     1
102
RTVSPropertyOp60
 70
     1
102
RTVSPropertyOp61
 70
     1
102
RTVSPropertyOp62
 70
     1
  0
XRECORD
  5
BF49
102
{ACAD_REACTORS
330
BF48
102
}
330
BF48
100
AcDbXrecord
280
     1
102
RTVSPost2010Prop28
280
     0
102
RTVSPost2010PropOp28
 70
     1
102
RTVSPost2010Prop29
280
     1
102
RTVSPost2010PropOp29
 70
     1
102
RTVSPost2010Prop30
280
     1
102
RTVSPost2010PropOp30
 70
     1
102
RTVSPost2010Prop31
280
     0
102
RTVSPost2010PropOp31
 70
     1
102
RTVSPost2010Prop32
280
     0
102
RTVSPost2010PropOp32
 70
     1
102
RTVSPost2010Prop33
280
     0
102
RTVSPost2010PropOp33
 70
     1
102
RTVSPost2010Prop34
280
     0
102
RTVSPost2010PropOp34
 70
     1
102
RTVSPost2010Prop35
280
     0
102
RTVSPost2010PropOp35
 70
     1
102
RTVSPost2010Prop36
280
     0
102
RTVSPost2010PropOp36
 70
     1
102
RTVSPost2010Prop37
 90
       50
102
RTVSPost2010PropOp37
 70
     1
102
RTVSPost2010Prop38
140
0.0
102
RTVSPost2010PropOp38
 70
     1
102
RTVSPost2010Prop39
140
1.0
102
RTVSPost2010PropOp39
 70
     1
102
RTVSPost2010Prop40
 90
        0
102
RTVSPost2010PropOp40
 70
     1
102
RTVSPost2010Prop41ColorIndex
 90
       18
102
RTVSPost2010Prop41ColorRGB
 90
        0
102
RTVSPost2010PropOp41
 70
     1
102
RTVSPost2010Prop42
 90
       50
102
RTVSPost2010PropOp42
 70
     1
102
RTVSPost2010Prop43
 90
        3
102
RTVSPost2010PropOp43
 70
     1
102
RTVSPost2010Prop44ColorIndex
 90
        5
102
RTVSPost2010Prop44ColorRGB
 90
      255
102
RTVSPost2010PropOp44
 70
     1
102
RTVSPost2010Prop45
280
     0
102
RTVSPost2010PropOp45
 70
     1
102
RTVSPost2010Prop46
 90
       50
102
RTVSPost2010PropOp46
 70
     1
102
RTVSPost2010Prop47
 90
       50
102
RTVSPost2010PropOp47
 70
     1
102
RTVSPost2010Prop48
 90
       50
102
RTVSPost2010PropOp48
 70
     1
102
RTVSPost2010Prop49
280
     0
102
RTVSPost2010PropOp49
 70
     1
102
RTVSPost2010Prop50
 90
       50
102
RTVSPost2010PropOp50
 70
     1
102
RTVSPost2010Prop51ColorIndex
 90
      256
102
RTVSPost2010Prop51ColorRGB
 90
-16777216
102
RTVSPost2010PropOp51
 70
     0
102
RTVSPost2010Prop52
140
1.0
102
RTVSPost2010PropOp52
 70
     0
102
RTVSPost2010Prop53
 90
        2
102
RTVSPost2010PropOp53
 70
     1
102
RTVSPost2010Prop54
  1
strokes_ogs.tif
102
RTVSPost2010PropOp54
 70
     1
102
RTVSPost2010Prop55
280
     0
102
RTVSPost2010PropOp55
 70
     1
102
RTVSPost2010Prop56
140
1.0
102
RTVSPost2010PropOp56
 70
     1
102
RTVSPost2010Prop57
140
1.0
102
RTVSPost2010PropOp57
 70
     1
102
RTVSPropertyOp0
 70
     1
102
RTVSPropertyOp1
 70
     1
102
RTVSPropertyOp2
 70
     1
102
RTVSPropertyOp3
 70
     1
102
RTVSPropertyOp4
 70
     1
102
RTVSPropertyOp5
 70
     1
102
RTVSPropertyOp6
 70
     1
102
RTVSPropertyOp7
 70
     1
102
RTVSPropertyOp8
 70
     1
102
RTVSPropertyOp9
 70
     1
102
RTVSPropertyOp10
 70
     1
102
RTVSPropertyOp11
 70
     1
102
RTVSPropertyOp12
 70
     1
102
RTVSPropertyOp13
 70
     1
102
RTVSPropertyOp14
 70
     1
102
RTVSPropertyOp15
 70
     1
102
RTVSPropertyOp16
 70
     1
102
RTVSPropertyOp17
 70
     1
102
RTVSPropertyOp18
 70
     1
102
RTVSPropertyOp19
 70
     1
102
RTVSPropertyOp20
 70
     1
102
RTVSPropertyOp21
 70
     1
102
RTVSPropertyOp22
 70
     1
102
RTVSPropertyOp23
 70
     1
102
RTVSPropertyOp24
 70
     1
102
RTVSPropertyOp25
 70
     1
102
RTVSPropertyOp26
 70
     1
102
RTVSPropertyOp27
 70
     1
102
RTVSPropertyOp28
 70
     1
102
RTVSPropertyOp29
 70
     1
102
RTVSPropertyOp30
 70
     1
102
RTVSPropertyOp31
 70
     1
102
RTVSPropertyOp32
 70
     1
102
RTVSPropertyOp33
 70
     1
102
RTVSPropertyOp34
 70
     1
102
RTVSPropertyOp35
 70
     1
102
RTVSPropertyOp36
 70
     1
102
RTVSPropertyOp37
 70
     1
102
RTVSPropertyOp38
 70
     1
102
RTVSPropertyOp39
 70
     1
102
RTVSPropertyOp40
 70
     1
102
RTVSPropertyOp41
 70
     1
102
RTVSPropertyOp42
 70
     1
102
RTVSPropertyOp43
 70
     1
102
RTVSPropertyOp44
 70
     1
102
RTVSPropertyOp45
 70
     1
102
RTVSPropertyOp46
 70
     1
102
RTVSPropertyOp47
 70
     1
102
RTVSPropertyOp48
 70
     1
102
RTVSPropertyOp49
 70
     1
102
RTVSPropertyOp50
 70
     1
102
RTVSPropertyOp51
 70
     0
102
RTVSPropertyOp52
 70
     0
102
RTVSPropertyOp53
 70
     1
102
RTVSPropertyOp54
 70
     1
102
RTVSPropertyOp55
 70
     1
102
RTVSPropertyOp56
 70
     1
102
RTVSPropertyOp57
 70
     1
102
RTVSPropertyOp58
 70
     1
102
RTVSPropertyOp59
 70
     1
102
RTVSPropertyOp60
 70
     1
102
RTVSPropertyOp61
 70
     1
102
RTVSPropertyOp62
 70
     1
  0
ENDSEC
  0
EOF
